PrimaNota.ru - самый крупный в мире бесплатный архив песенных текстов, аккордов, табулатур и нот


Kraan - Polarity - бас-таба, видео

Регистрация Запомнить меня
Войти через:  Facebook Google Twitter Vk Yandex Mail.ru

Kraan - Polarity - бас-таба, видео

Печатать
Просмотров: 63
-------------------------------------------------------------------------------
                             Polarity - Kraan
-------------------------------------------------------------------------------
Tabbed by: Ints92 
E-mail: indrek92@gmail.com

Tuning: standard

Might not be 100% accurate as I tabbed it by ear.


Intro
                             N.H---------------                     N.H--------
G|----------------------------4--------5----4------------------------4--------5---|
D|-------------------------------4--5---------4------2------------------4--5------|
A|----------/7----0-2-3-3---------------------------------0-2-3-3-----------------|
E|--7-7\--------------------------------------------------------------------------|

                      N.H--------------
G|---------------------4--------5---4-------------------------------------5-------|
D|--0---2-----------------4--5--------4----2------------------5-----7-------------|
A|-----------0-2-3-3----------------------------0-2-3-3----------------3------5---|
E|---------------------------------------------------------3-----5----------------|

Verse

G|--------------------------------------------------------------------------------|
D|---2----------------------------0---2---------------------------0h2-5\4---------|
A|-------0-2-3-3-----------3---------------0-2-3-3-----------3--------------------|
E|-------------------3--5------------------------------3--5-----------------------|

G|-----------------------------------------------------------------------5--5-----7-|
D|--2----------------------------0-0---0-2-------------------5-----7----------------|
A|-------0-2-3-3-----------3---------2--------0-2-3-3-----------------3--------5----|
E|-------------------3--5---------------------------------3-----5-------------------|

                                   N.H.
G|----------------------------------7-----------------------------------------|
D|----------------------5-----7-----------0--4\5------------------------------|
A|-------0-2-3-3-3-3-------------3--------------------------------------------|
E|--0----------------3-----5--------------------------------------------------|

G|--------------------------------------------------------------------------5--5-----7-|
D|------------------------5---7-------0---2---------------------5----7-----------------|
A|--------0-2-3-3-3-3-------------3-------------0-2-3-3-3-3--------------3--------5----|
E|--0-----------------3-----5-------------------------------3-----5--------------------|

                                                N.H-------------------N.H 
G|---------------------------------5-------------4--------5------4----------------|
D|-------4-5---5-2-0--------------------------------4--5------------4--5----------|
A|-----------------------------3-----5--------------------------------------------|
E|--0----------------3----5----------------0------------------------------0-2-3---|

    N.H-------------------N.H          N.H------------------N.H 
G|---4--------5------4------------------4--------5-----4--------------------------|
D|------4--5------------4--5---------------4--5-----------4--5--------------------|
A|--------------------------------------------------------------------------------|
E|--------------------------------0--------------------------------0-0-0-2-3------|

    N.H---------------N.H
G|---4--------5-----4-----------------------------------------------------------|
D|------4--5-----------4---------0-2-5\4----------------------------------------|
A|---------------------------0-2------------------------------------------------|
E|------------------------------------------------------------------------------|

                                    N.H  
G|---------------------------------------------------------------------------5--5-----7-|
D|--2---2----------------------------5---0---2-------------------5-----7----------------|
A|-----------0-2-3-3-3-3---------3----------------0-2-3-3-3-3-------------3--------5----|
E|-----------------------3---5--------------------------------3-----5-------------------|

G|----------------------------------------------------------------------------------|
D|--------------------------5-----7------------------4-5---5--4p2p0-----------------|
A|-----------0-2-3-3-3-3-------------3----5---------------------------------3----5--|
E|--0---0----------------3-----5----------------0-------------------3---5-----------|

   Slightly muted with right hand====================================================
G|------------------------------------------------------------------------------------|
D|----------------------------------------------------------------------------------0-|
A|-------0-2-3-3----2-3-3--3--3-3---3--3-5---7---7\---0-2-3-3----2-3-3----2-3-3-0-----|
E|--0---------------------------------------------------------------------------------|

       N.H                                         N.H  
G|------5-------------------------------------------5------------------------------------------|
D|--2---5---------------------------------------2---5------------------------------5-5---------|
A|--------0-2-3-3-----2-3-3-3-3---3---3---5---5-------0-2-3-3-3-3-----5----3--5/7------5-5-5-5-|
E|----------------------------------------------------------------3-----5----------------------|

                                                N.H
G|----------------------------------5------------5----------------------------5---------|
D|--2--------------------5----7--------------2---5----------------5-----7--------0-5\4--|
A|-------0-2-3-3-3-3-------------3------5----------0-2-3-3-3-3-------------3------------|
E|-------------------3-----5-----------------------------------3-----5------------------|

G|----------------------------------5--------------------------------------5------------|
D|--2-------------------5-----7------------------4-5--5-5\4----5-----7------------------|
A|-------0-2-3-3-3-3-------------3------5-------------------------------3------5--------|
E|-------------------3-----5-----------------0--------------3-----5---------------------|

G|----------------------------------5----------------------------------------5----------|
D|----------------------5-----7-------------2-------------------5-----7----------5\4-0--|
A|-------0-2-3-3-3-3-------------3------5--------0-2-3-3-3-3-------------3-----5--------|
E|--0----------------3-----5---------------------------------3-----5--------------------|

G|----------------------------------5---------------------------------------------------|
D|--2--------------------5----7-------------2----4-5--5-4p2p0---------------------------|
A|-------0-2-3-3-3-3-------------3------5-----------------------------3----5------------|
E|-------------------3-----5----------------------------------3---5---------------------|

Bass solo

G|----------14--16-----------14--12----12h14p12-------------------------------/14--12p11-----|
D|---14-16------------14-16---------------------14---12h14p12-----12-14-16-17----------------|
A|------------------------------------------------------------14-----------------------------|
E|-------------------------------------------------------------------------------------------|

G|----------14--16----------14--16~---16-17-19--17---16h17p16-14---12----19--14---12---------|
D|--14--16----------14--16--------------------------------------------14-------------14------|
A|-------------------------------------------------------------------------------------------|
E|-------------------------------------------------------------------------------------------|

G|------12h14-14/16--14-12\------------------------------------------------------------------|
D|-12------------------------------------0-2--/7--5--/9-7--5-/9-7--5-------------------------|
A|-----------------------------------2-2-------------------------------7---5-x---------------|
E|-----------------------------0-0-3---------------------------------------------------------|

G|----------------0-2--2/4--7-/6----9-11-12-14-11-7-9-------19----21-----19----21------------|
D|----5-------0-2-----------------7----------------------21----21-----21----21---------------|
A|----------2--------------------------------------------------------------------------------|
E|--3---3h5----------------------------------------------------------------------------------|

G|-----19----21-----19----21-----19----21-----19-------19--21--21-19-------------------------|
D|--21----21-----21----21-----21----21-----21----19-21---------------21-19-------------------|
A|-------------------------------------------------------------------------------------------|
E|-------------------------------------------------------------------------------------------|

G|--21--x-19-------21--21-19-------21--21-19-------21--21-19-------21--21-19------------|
D|-----------21-19-----------21-19-----------21-19-----------21-19-----------21-19------|
A|--------------------------------------------------------------------------------------|
E|--------------------------------------------------------------------------------------|

G|--21--21-19-------21--21-19-------21--21-19-------21--21-19----------------------|
D|------------21-19-----------21-19-----------21-19-----------21-19-17\------------|
A|---------------------------------------------------------------------------------|
E|---------------------------------------------------------------------------------|

Bridge
                                                                      Muted with right hand
G|------------0----------------------------------0----------------------------------|
D|--------0-2---2-----0-2-x-2----------------------4-0-2---0----------0--0-0--2--2--|
A|----0-2------------------------------------0-/2-----------------------------------|
E|--3--------------0----------0------------3-----------------0--0-------------------|

                                 N.H, use whammy bar
G|------------0--------------------5-----------------0----------x---x--x--x---x---x---x--x--x---x-|
D|--------0-2---2-----0-2-x-2--------------------0-2---4-0-/2-------------------------------------|
A|----0-2-----------------------------------0--2--------------------------------------------------|
E|--3--------------0----------0----------3--------------------------------------------------------|

Verse
                                       N.H 
G|--------------------------------------------------------------------------------------|
D|--0---2--------------------5----7-----5---0--5\4-2-------------------5----------------|
A|-----------0-2-3-3-3-3-------------3------------------0-2-3-3-3-3-----------3---3-5---|
E|-----------------------3-----5------------------------------------3-----5-------------|

G|------------------------------------------------------------------------5-------|
D|--2-------------------5-----7----------2----4-5--5-4p2p0----5-----7-------------|
A|-------0-2-3-3-3-3-------------3---5---------------------------------3------5---|
E|-------------------3-----5-------------------------------3-----5----------------|

                                     N.H  
G|----------------------------------------------------------------------------5-5----------|
D|----------------------5-5-----7-----5-------2-------------------5-----7----------0-5\4-0-|
A|-------0-2-3-3-3-3---------------3------5--------0-2-3-3-3-3-------------3---------------|
E|--0----------------3-------5---------------------------------3-----5---------------------|

G|----------------------------------5-----------------------------------------5------------|
D|--2--------------------5----7--------------2----4-5--5-4p2p0----5-----7------------------|
A|-------0-2-3-3-3-3-------------3------5----------------------------------3------5--------|
E|-------------------3-----5-----------------------------------3-----5----------------0----|

    N.H--------
G|---4--------5--------------------------------------------------------------|
D|------4--5-----------------------------------------------------------------|
A|---------------------------------------------------------------------------|
E|---------------------------------------------------------------------------|

| /  slide up
| \  slide down
| h  hammer-on
| p  pull-off
| ~  vibrato
| +  harmonic
| x  Mute note
===============================================================================
Добавлено: 26.10.2013
Другие материалы по этой песне:
  • Аккорды и текст

Страница создана 26.10.2013
http://primanota.ru/kraan/polarity-chords.htm
Привет, Гость.
Предлагаем пройти революционный курс по гитаре.
Подарок от PrimaNota.Ru, забирай!