PrimaNota.ru - самый крупный в мире бесплатный архив песенных текстов, аккордов, табулатур и нот


Kozma Joseph - Autumn Leaves - бас-таба, видео

Регистрация Запомнить меня
Войти через:  Facebook Google Twitter Vk Yandex Mail.ru

Kozma Joseph - Autumn Leaves - бас-таба, видео

Печатать
Просмотров: 162
Уроки эстрадного вокала в Санкт-Петербурге
joseph kozma-autumn_leaves

Basstab by Jan Bjorklund, Finland
 jani_bjorklund@yahoo.se>
You are welcome to request for basstabs!
Fingering and positions as suggested by TablEdit,
please use common sense!

TablEdited by Jan Bjorklund
Tuning : E A D G 	Time Signature: 4/4

 |               |               |               |    
           
|--------------------------2-------------------------------------|
|--------------------------------2-------------------------------|
|0-----------------------------------------------0---------------|
|----------------------------------------------------------------|

 |               |               |               |    
           
|7---------------------------------------------------------------|
|--------------------------7---------------------4---------------|
|--------------------------------5-------------------------------|
|----------------------------------------------------------------|

 |               |               |               |    
           
|0-------------------------------0-------------------------------|
|----------------------------------------------------------------|
|----------------------------------------------------------------|
|----------------------------------------------------------------|

 |               |               |               |    
           
|------------------------------------------------0---------------|
|----------------------------------------------------------------|
|3---------------3-----------------------------------------------|
|----------------------------------------------------------------|

 |               |               |               |    
           
|--------------------------------5-------------------------------|
|4---------------------------------------------------------------|
|----------------------------------------------------------------|
|----------------------------------------------------------------|

 |               |               |               |    
           
|4---------------------------------------------------------------|
|--------------------------------4-------------------------------|
|----------------------------------------------------------------|
|----------------------------------------------------------------|

 |               |               |               |    
           
|----------------------------------------------------------------|
|2-------------------------------2-------------------------------|
|----------------------------------------------------------------|
|----------------------------------------------------------------|

 |               |               |               |    
           
|----------------------------------------------------------------|
|2-------------------------------2-------------------------------|
|----------------------------------------------------------------|
|----------------------------------------------------------------|

 |               |               |               |    
           
|----------------------------------------------------------------|
|----------------------------------------------------------------|
|0-------------------------------0-------------------------------|
|----------------------------------------------------------------|

 |               |               |               |    
           
|7---------------------------------------------------------------|
|--------------------------------7-------------------------------|
|----------------------------------------------------------------|
|----------------------------------------------------------------|

 |               |               |               |    
           
|--------------------------------7-------------------------------|
|5---------------------------------------------------------------|
|----------------------------------------------------------------|
|----------------------------------------------------------------|

 |               |               |               |    
           
|----------------------------------------------------------------|
|----------------------------------------------------------------|
|3-------------------------------3-------------------------------|
|----------------------------------------------------------------|

 |               |               |               |    
           
|----------------------------------------------------------------|
|4-------------------------------4-------------------------------|
|----------------------------------------------------------------|
|----------------------------------------------------------------|

 |               |               |               |    
           
|4---------------------------------------------------------------|
|--------------------------4---------------------1---------------|
|--------------------------------2-------------------------------|
|----------------------------------------------------------------|

 |               |               |               |    
           
|--------------------------------4-------------------------------|
|2---------------------------------------------------------------|
|----------------------------------------------------------------|
|----------------------------------------------------------------|

 |               |               |               |    
           
|9---------------------------------------------------------------|
|--------------------------------9-------------------------------|
|------------------------------------------------7---------------|
|----------------------------------------------------------------|

 |               |               |               |    
           
|--------------------------------5-------------------------------|
|4---------------------------------------------------------------|
|----------------------------------------------------------------|
|----------------------------------------------------------------|

 |               |               |               |    
           
|----------------4-----------------------------------------------|
|--------------------------------4-------------------------------|
|------------2-----------------------------------2---------------|
|----------------------------------------------------------------|

 |               |               |               |    
           
|----------------------------------------------------------------|
|2-------------------------------4-------------------------------|
|----------------------------------------------------------------|
|----------------------------------------------------------------|

 |               |               |               |    
           
|------------------------------------------------4---------------|
|5-------------------------2-----5-------------------------------|
|----------------------------------------------------------------|
|----------------------------------------------------------------|

 |               |               |               |    
           
|----------------------------------------------------------------|
|--------------------------------2-------------------------------|
|0---------------------------------------------------------------|
|----------------------------------------------------------------|

 |               |               |               |    
           
|------------------------------------------------2---------------|
|0---------------0-----------------------------------------------|
|----------------------------------------------------------------|
|----------------------------------------------------------------|

 |               |               |               |    
           
|0-------------------------0-------------------------------------|
|--------------------------------0-------------------------0-----|
|----------------------------------------------------------------|
|----------------------------------------------------------------|

 |               |               |               |    
           
|------------------------------------------------7---------------|
|5-------------------------5-------------------------------------|
|------------------------------5---------5-----------------------|
|----------------------------------------------------------------|

 |               |               |               |    
           
|--------------------------------5-------------------------------|
|4---------------------------------------------------------------|
|----------------------------------------------------------------|
|----------------------------------------------------------------|

 |               |               |               |    
           
|4---------------------------------------------------------------|
|--------------------------------4-------------------------------|
|----------------------------------------------------------------|
|----------------------------------------------------------------|

 |               |               |               |    
           
|----------------------------------------------------------------|
|2-------------------------------1-------------------------------|
|----------------------------------------------------------------|
|----------------------------------------------------------------|

 |               |               |               |    
           
|----------------------------------------------------------------|
|0---------------------------------------------------------------|
|--------------------------------4-------------------------------|
|----------------------------------------------------------------|

 |               |               |               |    
           
|--------------------------------0-------------------------------|
|----------------------------------------------------------------|
|3-------------------------3---------------------3---------------|
|----------------------------------------------------------------|

 |               |               |               |    
           
|----------------------------------------------------------------|
|4---------------------------------------------------------------|
|--------------------------------2-------------------------------|
|----------------------------------------------------------------|

 |               |               |               |    
           
|----------------------------------------------------------------|
|2-------------------------2-------------------------------------|
|--------------------------------2-------------------------2-----|
|----------------------------------------------------------------|

 |               |               |               |    
           
|------------------------------------------------4---------------|
|2-------------------------2-------------------------------------|
|------------------------------2---------2-----------------------|
|----------------------------------------------------------------|

 |               |               |               |    
           
|----------------------------------------------------------------|
|------------------------------------------------2---------------|
|0---------------2---------------3-------------------------------|
|----------------------------------------------------------------|

 |               |               |               |    
           
|--------------------------------2---------------2---------------|
|0---------------0-----------------------------------------------|
|----------------------------------------------------------------|
|----------------------------------------------------------------|

 |               |               |               |    
           
|----------------------------------------------------------------|
|----------------------------------------------------------------|
|----------------0---------------1---------------2---------------|
|3---------------------------------------------------------------|

 |               |               |               |    
           
|----------------------------------------------------------------|
|--------------------------------2---------------2---------------|
|3---------------3-----------------------------------------------|
|----------------------------------------------------------------|

 |               |               |               |    
           
|----------------------------------------------------------------|
|4---------------2---------------0-------------------------------|
|------------------------------------------------3---------------|
|----------------------------------------------------------------|

 |               |               |               |    
           
|----------------------------------------------------------------|
|--------------------------------1---------------1---------------|
|2---------------2-----------------------------------------------|
|----------------------------------------------------------------|

 |               |               |               |    
           
|--------------------------------4---------------4---------------|
|2---------------2-----------------------------------------------|
|----------------------------------------------------------------|
|----------------------------------------------------------------|

 |               |               |               |    
           
|----------------------------------------------------------------|
|2---------------2---------------2-------------------------------|
|------------------------------------------------2---------------|
|----------------------------------------------------------------|

 |               |               |               |    
           
|2---------------------------------------------------------------|
|------------------------------------------------2---------------|
|----------------0---------------3-------------------------------|
|----------------------------------------------------------------|

 |               |               |               |    
           
|------------------------------------------------2---------------|
|0---------------2---------------4-------------------------------|
|----------------------------------------------------------------|
|----------------------------------------------------------------|

 |               |               |               |    
           
|----------------------------------------------------------------|
|----------------------------------------------------------------|
|----------------0---------------1---------------2---------------|
|3---------------------------------------------------------------|

 |               |               |               |    
           
|5---------------------------------------------------------------|
|--------------------------------2---------------5---------------|
|----------------3-----------------------------------------------|
|----------------------------------------------------------------|

 |               |               |               |    
           
|----------------------------------------------------------------|
|----------------------------------------------------------------|
|--------------------------------0---------------3---------------|
|2---------------3-----------------------------------------------|

 |               |               |               |    
           
|4---------------4-----------------------------------------------|
|--------------------------------4---------------4---------------|
|----------------------------------------------------------------|
|----------------------------------------------------------------|

 |               |               |               |    
           
|----------------------------------------------------------------|
|2---------------------------------------------------------------|
|--------------------------------0---------------1---------------|
|----------------3-----------------------------------------------|

 |               |               |               |    
           
|----------------------------------------------------------------|
|------------------------------------------------0---------------|
|2---------------3---------------4-------------------------------|
|----------------------------------------------------------------|

 |               |               |               |    
           
|--------------------------------5---------------5---------------|
|4---------------4-----------------------------------------------|
|----------------------------------------------------------2-----|
|----------------------------------------------------------------|

 |               |               |               |    
           
|----------------------------------------------------------------|
|------------------------------------------------1---------------|
|----------------3---------------4-------------------------------|
|----------------------------------------------------------------|

 |               |               |               |    
           
|--------------------------------0---------------1---------------|
|2---------------4-----------------------------------------------|
|----------------------------------------------------------------|
|----------------------------------------------------------------|

 |               |               |               |    
           
|2---------------3---------------4-------------------------------|
|------------------------------------------------2---------------|
|----------------------------------------------------------------|
|----------------------------------------------------------------|

 |               |               |               |    
           
|----------------------------------------------------------------|
|----------------------------------------------------------------|
|0---------------1---------------2---------------3---------------|
|----------------------------------------------------------------|

 |               |               |               |    
           
|7---------------7-----------------------------------------------|
|--------------------------------7---------------7---------------|
|----------------------------------------------------------------|
|----------------------------------------------------------------|

 |               |               |               |    
           
|0---------------------------------------------------------------|
|----------------------------------------------------------------|
|----------------2---------------3---------------4---------------|
|----------------------------------------------------------------|

 |               |               |               |    
           
|----------------------------------------------------------------|
|0---------------1---------------2---------------4---------------|
|----------------------------------------------------------------|
|----------------------------------------------------------------|

 |               |               |               |    
           
|----------------------------------------------------------------|
|4-----------------------------------------------4---------------|
|----------------0---------------3-------------------------------|
|----------------------------------------------------------------|

 |               |               |               |    
           
|----------------------------------------------------------------|
|--------------------------------1---------------1---------------|
|2---------------2-----------------------------------------------|
|----------------------------------------------------------------|

 |               |               |               |    
           
|----------------4-------------------------------3---------------|
|2-------------------------------1-------------------------------|
|----------------------------------------------------------------|
|----------------------------------------------------------------|

 |               |               |               |    
           
|------------------------------------------------1---------------|
|0---------------0-----------------------------------------------|
|--------------------------------4-------------------------------|
|----------------------------------------------------------------|

 |               |               |               |    
           
|----------------------------------------------------------------|
|--------------------------------0---------------2---------------|
|3---------------4-----------------------------------------------|
|----------------------------------------------------------------|

 |               |               |               |    
           
|----------------------------------------------------------------|
|4-----------------------------------------------4---------------|
|----------------3---------------2-------------------------------|
|----------------------------------------------------------------|

 |               |               |               |    
           
|----------------------------------------------------------------|
|2---------------------------------------------------------------|
|--------------------------------0---------------1---------------|
|----------------3-----------------------------------------------|

 |               |               |               |    
           
|----------------------------------------------------------------|
|------------------------------------------------0---------------|
|2---------------3---------------3-------------------------------|
|----------------------------------------------------------------|

 |               |               |               |    
           
|----------------------------------------------------------------|
|--------------------------------2-------------------------------|
|0---------------------------------------------------------------|
|----------------------------------------------------------------|

 |               |               |               |    
           
|----------------------------------------------------------------|
|0-------------------------------0-------------------------------|
|----------------------------------------------------------------|
|----------------------------------------------------------------|

 |               |               |               |    
           
|--------------------------------7-------------------------------|
|5---------------------------------------------------------------|
|----------------------------------------------------------------|
|----------------------------------------------------------------|

 |               |               |               |    
           
|----------------5-----------------------------------------------|
|--------------------------------5-------------------------------|
|------------3-----------------------------------3---------------|
|----------------------------------------------------------------|

 |               |               |               |    
           
|--------------------------------5-------------------------------|
|4---------------------------------------------------------------|
|----------------------------------------------------------------|
|----------------------------------------------------------------|

 |               |               |               |    
           
|----------------4-----------------------------------------------|
|--------------------------------4-------------------------------|
|------------2-----------------------------------2---------------|
|----------------------------------------------------------------|

 |               |               |               |    
           
|----------------------------------------------------------------|
|2-------------------------------2-------------------------------|
|----------------------------------------------------------------|
|----------------------------------------------------------------|

 |               |               |               |    
           
|----------------------------------------------------------------|
|2-------------------------------2-------------------------------|
|----------------------------------------------------------------|
|----------------------------------------------------------------|

 |               |               |               |    
           
|----------------------------------------------------------------|
|--------------------------------2-------------------------------|
|0---------------------------------------------------------------|
|----------------------------------------------------------------|

 |               |               |               |    
           
|----------------------------------------------------------------|
|0-------------------------------0-------------------------------|
|----------------------------------------------------------------|
|----------------------------------------------------------------|

 |               |               |               |    
           
|0-------------------------------0-------------------------------|
|----------------------------------------------------------------|
|----------------------------------------------------------------|
|----------------------------------------------------------------|

 |               |               |               |    
           
|------------------------------------------------0---------------|
|----------------0---------------2-------------------------------|
|3---------------------------------------------------------------|
|----------------------------------------------------------------|

 |               |               |               |    
           
|--------------------------------5-------------------------------|
|4---------------------------------------------------------------|
|----------------------------------------------------------------|
|----------------------------------------------------------------|

 |               |               |               |    
           
|----------------------------------------------------------------|
|--------------------------------4-------------------------------|
|2-------------------------2---------------------2---------------|
|----------------------------------------------------------------|

 |               |               |               |    
           
|--------------------------------4-------------------------4-----|
|2-------------------------2-------------------------------------|
|----------------------------------------------------------------|
|----------------------------------------------------------------|

 |               |               |               |    
           
|--------------------------------4---------4---------------------|
|2---------------------------2-------------------2---------------|
|----------------------------------------------------------------|
|----------------------------------------------------------------|

 |               |               |               |    
           
|--------------------------------5-------------------------------|
|4---------------------------------------------------------------|
|----------------------------------------------------------------|
|----------------------------------------------------------------|

 |               |               |               |    
           
|4---------------------------------------------------------------|
|--------------------------4---------------------1---------------|
|--------------------------------2-------------------------------|
|----------------------------------------------------------------|

 |               |               |               |    
           
|----------------------------------------------------------------|
|2-------------------------------4-------------------------------|
|----------------------------------------------------------------|
|----------------------------------------------------------------|

 |               |               |               |    
           
|------------------------------------------------4---------------|
|5-------------------------2-----5-------------------------------|
|----------------------------------------------------------------|
|----------------------------------------------------------------|

 |               |               |               |    
           
|----------------------------------------------------------------|
|--------------------------------2-------------------------------|
|0-------------------------0---------------------0---------------|
|----------------------------------------------------------------|

 |               |               |               |    
           
|--------------------------------2-------------------------------|
|0-------------------------0---------------------0---------------|
|----------------------------------------------------------------|
|----------------------------------------------------------------|

 |               |               |               |    
           
|0-------------------------0-------------------------------------|
|--------------------------------0-------------------------0-----|
|----------------------------------------------------------------|
|----------------------------------------------------------------|

 |               |               |               |    
           
|------------------------------------------------7---------------|
|5-------------------------5-------------------------------------|
|------------------------------5---------5-----------------------|
|----------------------------------------------------------------|

 |               |               |               |    
           
|--------------------------------5-------------------------------|
|4---------------------------------------------------------------|
|----------------------------------------------------------------|
|----------------------------------------------------------------|

 |               |               |               |    
           
|--------------------------4-------------------------------------|
|--------------------------------4-------------------------------|
|2-----------------------------------------------2---------------|
|----------------------------------------------------------------|

 |               |               |               |    
           
|----------------------------------------------------------------|
|2-------------------------------1-------------------------------|
|----------------------------------------------------------------|
|----------------------------------------------------------------|

 |               |               |               |    
           
|----------------------------------------------------------------|
|0---------------------------------------------------------------|
|--------------------------------4-------------------------------|
|----------------------------------------------------------------|

 |               |               |               |    
           
|--------------------------5-------------------------------------|
|--------------------------------5-------------------------------|
|3-----------------------------------------------3---------------|
|----------------------------------------------------------------|

 |               |               |               |    
           
|----------------------------------------------------------------|
|4---------------------------------------------------------------|
|--------------------------------2-------------------------------|
|----------------------------------------------------------------|

 |               |               |               |    
           
|----------------------------------------------------------------|
|2-------------------------------2-------------------------------|
|----------------------------------------------------------------|
|----------------------------------------------------------------|

 |               |               |               |    
           
|----------------------------------9-----------------------------|
|--------------------------9-------------------------------------|
|7-----------------------------------------------------------7---|
|----------------------------------------------------------------|


Created with TablEdit http://www.tabledit.com/


_____________________________________________________
Hitta snörapporter... 
från 500 olika skidorter i Europa
på http://se.snow.yahoo.com

     
Добавлено: 08.11.2013
Другие материалы по этой песне:
  • Аккорды и текст

Страница создана 13.08.2013
http://primanota.ru/kozma-joseph/autumn-leaves-chords.htm
Привет, Гость.
Предлагаем пройти революционный курс по гитаре.
Подарок от PrimaNota.Ru, забирай!