PrimaNota.ru - самый крупный в мире бесплатный архив песенных текстов, аккордов, табулатур и нот


Kovbojok - Buzerator Bolha - таба, видео

Регистрация Запомнить меня
Войти через:  Facebook Google Twitter Vk Yandex Mail.ru

Kovbojok - Buzerator Bolha - таба, видео

Печатать
Просмотров: 90
Уроки эстрадного вокала в Санкт-Петербурге
Sziasztok!
Ez a zelso kottam, hallas utan probaltam, itt van:

INTRO

E--------------------------------------------------------------|
B--------------------------------------------------------------|
G--------------------------------------------------------------|
D-10-10-10-10-10-10-3-3-3-3-3-3-5-5-5-5-5-5-10-10-10-10-10-10--|
A-10-10-10-10-10-10-3-3-3-3-3-3-5-5-5-5-5-5-10-10-10-10-10-10--|
E--8--8--8--8--8--8-1-1-1-1-1-1-3-3-3-3-3-3--8--8--8--8--8--8--|

E--------------------------------------------------------------------|
B--------------------------------------------------------------------|
G-------------------10-10-10-10-10-10--------------------------------|
D-10-10-10-10-10-10-10-10-10-10-10-10--5-5-5-5-5-5-10-10-10-10-10-10-|
A-10-10-10-10-10-10--8--8--8--8--8--8--5-5-5-5-5-5-10-10-10-10-10-10-|
E--8--8--8--8--8--8--------------------3-3-3-3-3-3--8--8--8--8--8--8-|

E ------------------------------|
B ------------------------------|
G ------------------------------|
D 5-5-5-5-5-5-5-5-5-5-5-5-5-5-5-|
A 5-5-5-5-5-5-5-5-5-5-5-5-5-5-5-|
E 3-3-3-3-3-3-3-3-3-3-3-3-3-3-3-|


VERZE

E ------------------------------------------------------------------|
B ------------------------------------------------------------------|
G ------------------------------------------------------------------|
D 10-10-10-10-10-10-10-10-3-3-3-3-3-3-3-5-5-5-5-5-5-5-5-5-5-5-5-5-5-|
A 10-10-10-10-10-10-10-10-3-3-3-3-3-3-3-5-5-5-5-5-5-5-5-5-5-5-5-5-5-|
E 8--8--8--8--8--8--8--8--1-1-1-1-1-1-1-3-3-3-3-3-3-3-3-3-3-3-3-3-3-|

E ------------------------------------------------------------------|
B ------------------------------------------------------------------|
G ------------------------------------------------------------------|
D 10-10-10-10-10-10-10-10-3-3-3-3-3-3-3-5-5-5-5-5-5-5-5-5-5-5-5-5-5-|
A 10-10-10-10-10-10-10-10-3-3-3-3-3-3-3-5-5-5-5-5-5-5-5-5-5-5-5-5-5-|
E 8--8--8--8--8--8--8--8--1-1-1-1-1-1-1-3-3-3-3-3-3-3-3-3-3-3-3-3-3-|


E ------------------------------------------------------------------------|
B ------------------------------------------------------------------------|
G ------------------------------------------------------------------------|
D 10-10-10-10-10-10-10-10-2-2-2-2-2-2-2-2-3-3-3-3-3-3-3-3-5-5-5-5-5-5-5-5-|
A 10-10-10-10-10-10-10-10-2-2-2-2-2-2-2-2-3-3-3-3-3-3-3-3-5-5-5-5-5-5-5-5-|
E 8--8--8--8--8--8--8--8--0-0-0-0-0-0-0-0-1-1-1-1-1-1-1-1-3-3-3-3-3-3-3-3-|

E ------------------------------------------------------------------------|
B ------------------------------------------------------------------------|
G ------------------------------------------------------------------------|
D 10-10-10-10-10-10-10-10-2-2-2-2-2-2-2-2-3-3-3-3-3-3-3-3-5-5-5-5-5-5-5-5-|
A 10-10-10-10-10-10-10-10-2-2-2-2-2-2-2-2-3-3-3-3-3-3-3-3-5-5-5-5-5-5-5-5-|
E 8--8--8--8--8--8--8--8--0-0-0-0-0-0-0-0-1-1-1-1-1-1-1-1-3-3-3-3-3-3-3-3-|


E ------------------------------|
B ------------------------------|
G ------------------------------|
D 5-5-5-5-5-5-5-5-5-5-5-5-5-5-5-|
A 5-5-5-5-5-5-5-5-5-5-5-5-5-5-5-|
E 3-3-3-3-3-3-3-3-3-3-3-3-3-3-3-|


REFREN


E ------------------------------------------------------------------------|
B ------------------------------------------------------------------------|
G ----------------------------------------------------------5-5-5-5-5-5-5-|
D 10-10-10-10-10-10-10-10-3-3-3-3-3-3-3-3-5-5-5-5-5-5-5-5-5-5-5-5-5-5-5-5-|
A 10-10-10-10-10-10-10-10-3-3-3-3-3-3-3-3-5-5-5-5-5-5-5-5-5-3-3-3-3-3-3-3-|
E 8--8--8--8--8--8--8--8--1-1-1-1-1-1-1-1-3-3-3-3-3-3-3-3-3---------------|


E --------------------------------------------------------------------|
B ----------------5-5-5-5-5-5-5-5-------------------------------------|
G 5-5-5-5-5-5-5-5-5-5-5-5-5-5-5-5-------------------5-5-5-5-5-5-5-5---|
D 5-5-5-5-5-5-5-5-3-3-3-3-3-3-3-3-5-5-5-5-5-5-5-5-5-5-5-5-5-5-5-5-5---|
A 3-3-3-3-3-3-3-3-----------------5-5-5-5-5-5-5-5-5-3-3-3-3-3-3-3-3---|
E --------------------------------3-3-3-3-3-3-3-3-3-------------------|

E ------------------------------------------------------------------------|
B ------------------------------------------------------------------------|
G ----------------------------------------------------------5-5-5-5-5-5-5-|
D 10-10-10-10-10-10-10-10-3-3-3-3-3-3-3-3-5-5-5-5-5-5-5-5-5-5-5-5-5-5-5-5-|
A 10-10-10-10-10-10-10-10-3-3-3-3-3-3-3-3-5-5-5-5-5-5-5-5-5-3-3-3-3-3-3-3-|
E 8--8--8--8--8--8--8--8--1-1-1-1-1-1-1-1-3-3-3-3-3-3-3-3-3---------------|


E -------------------------------------------------------------------|
B ----------------5-5-5-5-5-5-5-5------------------------------------|
G 5-5-5-5-5-5-5-5-5-5-5-5-5-5-5-5-------------------5-5-5-5-5-5-5-5--|
D 5-5-5-5-5-5-5-5-3-3-3-3-3-3-3-3-5-5-5-5-5-5-5-5-5-5-5-5-5-5-5-5-5--|
A 3-3-3-3-3-3-3-3-----------------5-5-5-5-5-5-5-5-5-3-3-3-3-3-3-3-3--|
E --------------------------------3-3-3-3-3-3-3-3-3------------------|

verze 2x
refrén
verze2x
refrén

udv
Добавлено: 19.06.2012
Другие материалы по этой песне:
  • Аккорды и текст

Страница создана 19.06.2012
http://primanota.ru/kovbojok/buzerator-bolha-chords.htm
Привет, Гость.
Предлагаем пройти революционный курс по гитаре.
Подарок от PrimaNota.Ru, забирай!