PrimaNota.ru - самый крупный в мире бесплатный архив песенных текстов, аккордов, табулатур и нот


Kotzreiz - Knüppelvoll - бас-таба, видео

Регистрация Запомнить меня
Войти через:  Facebook Google Twitter Vk Yandex Mail.ru

Kotzreiz - Knüppelvoll - бас-таба, видео

Печатать
Просмотров: 37
-------------------------------------------------------------------------------
                             Knüppelvoll(wuahhhh) - Kotzreiz
-------------------------------------------------------------------------------
Tabbed by: Bosse Brand
E-mail: bossebrand@web.de
Dit is eigentlich alles einfach, eigentlich hab ich das ganze album nur durch rumprobieren innerhalb 
ein paar tagen drauf gehabt :) ihr könnt bei dem Song ruhig alle anderen sagten 
ausser die A abmachen

Tuning: Standard E,A,D,G

Intro:
eins,zwo,drei,vier: (nur einmal wiederholen!)
G|---------------------------------------------------------------------------|
D|---------------------------------------------------------------------------|
A|-1-1-1-1-1-1-1-1-1-1-1-1-4--3--2-------------------------------------------|
E|---------------------------------------------------------------------------|

Verse:
  Ich bin voll du bist voll wir sind voll
G|---------------------------------------------------------------------------|
D|---------------------------------------------------------------------------|
A|-----------------------------------------4--3--2--1------------------------|
E|---------------------------------------------------------------------------|
  Hund is voll, Kerze voll, Blase voll
G|---------------------------------------------------------------------------|
D|---------------------------------------------------------------------------|
A|------------------------------------4--3--2--1-----------------------------|
E|---------------------------------------------------------------------------|
 Ich bin voll, Volker voll, Liebevoll
G|---------------------------------------------------------------------------|
D|---------------------------------------------------------------------------|
A|1--1--1--1--1--1--1--1--1--1--1--1--4--3--2--1-----------------------------|
E|---------------------------------------------------------------------------|
Bad is voll, Bier is leer, Schnauze voll
G|---------------------------------------------------------------------------|
D|---------------------------------------------------------------------------|
A|-1--1--1--1--1--1--1--1--1--1--1--1--4--3--2--1----------------------------|
E|---------------------------------------------------------------------------|


  Refrainnnn:                          Knüppelvoll!(4 mal wiederholen)
G|---------------------------------------------------------------------------|
D|---------------------------------------------------------------------------|
A|-1--1--1--1--1--1--1--1--1--1--1--1--4--3--2--1----------------------------|
E|---------------------------------------------------------------------------|

Nochmal den Verse genauso spielen.
Dann noch mal Refrain genauso zocken.
Dann solo (ihr hört das dann schon wenn ihr spielen müsst)
G|---------------------------------------------------------------------------|
D|---------------------------------------------------------------------------|
A|-1--1--1--1--1--1--und so weiter-------------------------------------------|
E|---------------------------------------------------------------------------|

Dann Refrain und dahaaaaann:

   Knüppel.....                              voll!         dadada  da
G|---------------------------------------------------------------------------|
D|---------------------------------------------------------------------------|
A|-4--3--2----4--3--2----4--3--2----4--3--2--1---------------------1---------|
E|---------------------------------------------------------------------------|
Добавлено: 23.09.2015
Вам также может быть интересно:
Другие материалы по этой песне:
  • Аккорды и текст

Страница создана 23.09.2015
http://primanota.ru/kotzreiz/knuppelvoll-chords.htm
Привет, Гость.
Предлагаем пройти революционный курс по гитаре.
Подарок от PrimaNota.Ru, забирай!