PrimaNota.ru - самый крупный в мире бесплатный архив песенных текстов, аккордов, табулатур и нот


Kotzen, Richie - Shine - таба, видео

Регистрация Запомнить меня
Войти через:  Facebook Google Twitter Vk Yandex Mail.ru

Kotzen, Richie - Shine - таба, видео

Печатать
Просмотров: 142
Авторы: Richie Zito, Richie Kotzen

Arrangement is a mix of album/acoustic/live versions
Standard tuning
Capo 2nd
Chords and tab in relation to capo

intro
e|--0--0-0-0-0--0--0-0-0-0--0--0-0-0-0--0--0-0-0-0----
b|--0--0-0-0-0--0--0-0-0-0--0--0-0-0-0--0--0-0-0-0----
g|--9--9-9-9-9--9--9-9-9-9--9--9-9-9-9--9--9-9-9-9----
d|--9--9-9-9-9--9--9-9-9-9--9--9-9-9-9--9--9-9-9-9----
a|--7--7-7-7-7--7--7-7-7-7--6--6-6-6-6--6--6-6-6-6----
e|--0--0-0-0-0--0--0-0-0-0--0--0-0-0-0--0--0-0-0-0----

e|--0--0-0-0-0---0---0-0--0---0~----------------------
b|--0--0-0-0-0---0---0-0--0---0~----------------------
g|--2--2-2-2-2---2---2-2--2---2~----------------------
d|--2--2-2-2-2---2---2-2--2---2~----------------------
a|--0--0-0-0-0---0---0-0--0---0~----------------------
e|----------------------------------------------------


verse
e|----------------------------------------------------
b|--5---5---5---5---5---5---5---5---5---5---5---5-----
g|--4---4---4---4---4---4---4---4---4---4---4---4-----
d|--2---2---2---2---2---2---2---2---2---2---2---2-----
a|--2---2---2---2---2---2---0---0---0---0---0---0-----
e|--0---0---0---0---0---0-----------------------------

e|----------------------------------------------------
b|--5---5---5---5---5---5---5---5---5---5---5---5-----
g|--4---4---4---4---4---4---4---4---4---4---4---4-----
d|--4---4---4---4---4---4---2---2---2---2---2---2-----
a|--4---4---4---4---4---4---0---0---0---0---0---0-----
e|--2---2---2---2---2---2-----------------------------


pre-chorus
e|----------------------------------------------------
b|--5---5---5---5---5---5---5---5---5---5---5---5-----
g|--4---4---4---4---4---4---4---4---4---4---4---4-----
d|--4---4---4---4---4---4---4---4---4---4---4---4-----
a|--2---2---2---2---2---2---2---2---2---2---2---2-----
e|----------------------------------------------------

e|----------------------------------------------------
b|--4--4-4-4-4--4--4-4-4-4--4--4-4-4-4--4--4-4-4-4----
g|--4--4-4-4-4--4--4-4-4-4--4--4-4-4-4--4--4-4-4-4----
d|--4--4-4-4-4--4--4-4-4-4--4--4-4-4-4--4--4-4-4-4----
a|--2--2-2-2-2--2--2-2-2-2--2--2-2-2-2--2--2-2-2-2----
e|----------------------------------------------------

chorus
e|--0--0-0-0-0--0--0-0-0-0--0--0-0-0-0--0--0-0-0-0----
b|--0--0-0-0-0--0--0-0-0-0--0--0-0-0-0--0--0-0-0-0----
g|--9--9-9-9-9--9--9-9-9-9--6--6-6-6-6--4--4-4-4-4----
d|--9--9-9-9-9--9--9-9-9-9--6--6-6-6-6--4--4-4-4-4----
a|--7--7-7-7-7--6--6-6-6-6--4--4-4-4-4--2--2-2-2-2----
e|--0--0-0-0-0--0--0-0-0-0--0--0-0-0-0--0--0-0-0-0----

e|--0--0-0-0-0--0--0-0-0-0--0--0-0-0-0--0--0-0-0-0----
b|--5--5-5-5-5--5--5-5-5-5--5--5-5-5-5--5--5-5-5-5----
g|--4--4-4-4-4--4--4-4-4-4--4--4-4-4-4--4--4-4-4-4----
d|--2--2-2-2-2--2--2-2-2-2--2--2-2-2-2--2--2-2-2-2----
a|--0-----------------------------------2-------------
e|--------------4-----------2-----------0-------------


post-chorus/bridge/outro
e|--0--0-0-0-0--0--0-0-0-0--0--0-0-0-0--0--0-0-0-0----
b|--5--5-5-5-5--5--5-5-5-5--5--5-5-5-5--4--4-4-4-4----
g|--4--4-4-4-4--4--4-4-4-4--4--4-4-4-4--4--4-4-4-4----
d|--2--2-2-2-2--2--2-2-2-2--4--4-4-4-4--4--4-4-4-4----
a|--0--0-0-0-0--2--2-2-2-2--2--2-2-2-2--2--2-2-2-2----
e|--------------0--0-0-0-0----------------------------


verse
       E     A
Oh the night makes you a star
       F#        A
And it holds you cold in its arms
           E           A               F#
You're the one to whom nobody verses I love you
       A
Unless you say it first
       E         A
So you lie there holding your breath
         F#          A
And it's strange how soon you forget
            E 
That you're like stars
A                      F#
They only show up when it's dark
            A
'Cause they don't know their worth

pre-chorus
    B
And I think you need to stop following misery's lead
                                      E   E/D
Shine away, shine away, shine away___ yeah

chorus
C#       B            A  G#/A  F#/A        E/A
Isn't it time you got over how fragile you are
          E   E/D
We're all waiting
C#         B         A   G#/A    F#/A           E/A
Waiting on your supernova 'cause that's who you are

post-chorus
           A      E      B
And you've only begun to shine

verse
          E              A                    F#m
There are times when the poets and porn stars align and
A                       E
You won't know who to believe in
     A                       F#m         A
Well that's a good time to be leavin'
        E    A
And the past knocks on your door
           F#m                      A
And throws stones at your window at 4 in the morning
     E        A
Well maybe he thinks it's romantic
   F#m             A
He's crazy but you knew that before

pre-chorus
    B
And I think you need to stop following misery's lead
                                      E   E/D
Shine away, shine away, shine away___ yeah

chorus
C#       B            A  G#/A  F#/A        E/A
Isn't it time you got over how fragile you are
          E   E/D
We're all waiting
C#         B         A   G#/A    F#/A           E/A
Waiting on your supernova 'cause that's who you are

post-chorus
           A      E      B
And you've only begun to shine
            A      E      B
Yeah you've only begun to shine

bridge
          A           E                B
Won't you shine shine shine shine over shadow oh oh
A           E                B
Shine shine shine shine over shadow oh oh
A           E
Shine shine shine shine over

pre-chorus
B
I think you need to stop following misery's lead
                                      E   E/D
Shine away, shine away, shine away___ yeah

chorus
C#       B            A  G#/A  F#/A        E/A
Isn't it time you got over how fragile you are
          E   E/D
We're all waiting
C#         B         A   G#/A    F#/A           E/A
Waiting on your supernova 'cause that's who you are

post-chorus/outro
           A      E      B
And you've only begun to shine
            A      E      B
Yeah you've only begun to shine
            A      E      B
Yeah you've only begun to shine
            A      E      B
Yeah you've only begun to shine
Добавлено: 24.11.2013
Другие материалы по этой песне:
  • Аккорды и текст

Страница создана 05.11.2013
http://primanota.ru/kotzen-richie/shine-chords.htm
Привет, Гость.
Предлагаем пройти революционный курс по гитаре.
Подарок от PrimaNota.Ru, забирай!