PrimaNota.ru - самый крупный в мире бесплатный архив песенных текстов, аккордов, табулатур и нот


Kotzen, Richie - She - аккорды и текст, таба, видео

Регистрация Запомнить меня
Войти через:  Facebook Google Twitter Vk Yandex Mail.ru

Kotzen, Richie - She - аккорды и текст, таба, видео

Печатать
Просмотров: 202
She
Kotzen, Richie
		   t. See http://www..net/faq/ for more information.                     #
#-----------------------------------------------------------------------------#




artist: Richie Kotzen
album: "Richie Kotzen's Fever Dream", RoadRunner Records, 1990.
song: "She"
tabbed by: Vlad vladmo@hotmail.com>

Here is my tab of this Richie Kotzen tune
I think this will give you some help to start off.
I didn't tabbed some second guitar licks, that were done in the bridge and
chorus.
They are pretty easy, and I think you should be able to figure them out.
As for the solo, well, I might be nineteen years old, but Richie was pretty
fast at this age.
Kotzen's strong vibrato its just too great.
For figuring this out, I used as much musical theory as much as I did use my
ears. Hope you'll like it.
If you have some ideeas, corrections, please send them to my email address:
vladmo@hotmail.com

h- hammer on
p- pull off
/- slide up
\- slide down
~- vibrato
^Bm  bend full step
^b- bend half step
t- right hand tapping

                            "She"



Intro:

E|---------------------------------------------------------
B|---------------------------------------------------------
G|--------------------2-0h2--------------------------------
D|-0h2-2-2---0h2-2-2--2-0h2--0h2-2-2--0h2-2-2--------------
A|-0h2-2-2---0h2-2-2---------0h2-2-2--0h2-2-2---0-2p0------
E|-0---------0---------------0--------0---------------3h0--



E|------------------------------------------------------
B|------------------------------------------------------
G|--------------------2-0h2-----------------------------
D|-0h2-2-2---0h2-2-2--2-0h2--0h2-2-2--0h2-2-2---0-------
A|-0h2-2-2---0h2-2-2---------0h2-2-2--0h2-2-2---0-------
E|-0---------0---------------0--------0-----------------


the riff above is played 3X; the third time the second guitar does:
E|---------------------------------------------------------------
B|-12~------17~-15~-------15-17-17-15~---------------------------
G|----14/16------------16---------------11^b-11^b-11^b-11^b\\\\--
D|--------------------------------------11^b-11^b-11^b-11^b\\\\--
A|---------------------------------------------------------------
E|---------------------------------------------------------------


Verse:
this is played 4X; its done palm muted... smoothly:

E|--------------------------------------------------------------------------
B|--------------------------------------------------------------------------
G|----9---9-----------9---9-----------------9---9---------9---9-------------
D|----9---9-----------9---9-----------------9---9---------9---9-------------
A|-----------12-10----------14p12-----------------12-10---------14p12-------
E|-/12--12---------/12--12--------15p12--/12--12-------/12--12-----15h12--


Bridge:
   G6  A                          C6  D
E|----------------------------------------------------------
B|----------------------------------------------------------
G|-0-0-2----2-0---0-0-2---2-0-----5-5-7----7-5--5-5-5--5h7--
D|-0-0-2---0------0-0-2---2-0-----5-5-7--7------5-5-5--5h7--
A|--------------------------------0-------------0------0----
E|-0--------------0-----------------------------------------


Chorus:
                                               [--palm muted--]
E|-------------------------------------------------------------------
B|----------------------------15--14-15--15-15-----------------------
G|----------14-12-14---14-14--14--14-14--14-14----7--7--7--7----7h9~-
D|--2---2-2-14-12-14---14-14--14--14-14--14-14----7--7--7--7---------
A|--2---2-2-12----12---12-12-----------------------------------------
E|--0---0-0--------------------------------------0--0--0--0----------
She.....


E|-------------------------------------------------------------------
B|----------------------------15--14-15--15-14-----------------------
G|----------14-12-14---14-14--14--14-14--14-14----7--7--7h9~---------
D|--2---2-2-14-12-14---14-14--14--14-14--14-14----7--7--7h9----------
A|--2---2-2-12----12---12-12-----------------------------------------
E|--0---0-0--------------------------------------0--0--0--0----------
She.....


Verse:


Bridge:

then...
E|-----------3h0--------------------------------------------
B|-------------------5p3p0----------------------------------
G|---------------2/4------4p2p0--------0-2--2-2--2-2--2-0---
D|-0h2-2-2-----------------------------0-2--2-2--2-2--2-0---
A|-0h2-2-2----------------------4p2p0--0--------------------
E|-0--------------------------------------------------------


E|------------------------------
B|----------8h5-----------------
G|-----------------7/9-12~------
D|-0h2-2-2------7/9----12~------
A|-0h2-2-2----------------------
E|-0----------------------------


intro solo:
                       t                     t
E|----------10h12h15-h19----------10h12h15-h17----------10h12p10h15-p-
B|-10h12h15--------------10h12h15--------------10h12h15---------------
G|--------------------------------------------------------------------
D|--------------------------------------------------------------------
A|--------------------------------------------------------------------
E|--------------------------------------------------------------------


E|-p12p10----------------------------------------------
B|--------15p12p10-------------------------------------
G|-----------------12----------------------------------
D|-----------------------------------------------------
A|-----------------------------------------------------
E|-----------------------------------------------------

solo:

E|-------------14h15--17^B^17h15----15--15^B-------17^B^17~~~~~-
B|-------15h17-------------------17----------17~~~~-------------
G|--14^B--------------------------------------------------------
D|--------------------------------------------------------------
A|--------------------------------------------------------------
E|--------------------------------------------------------------


E|---------------------------------------------------------
B|-12----14-12----12---------------14-12h14----------------
G|----14-------14----14-12^b-12h14----------12-14h12-------
D|---------------------------------------------------14----
A|---------------------------------------------------------
E|---------------------------------------------------------


E|-------------------------------------------------------
B|--------------------------14-12-----15^B-15^B--15~~~~--
G|--------16h14-14h12----12-------/16--------------------
D|-14h17--------------14---------------------------------
A|-------------------------------------------------------
E|-------------------------------------------------------

then this goes pretty fast:

E|-----------------------------------------------
B|-----------------------------------------------
G|---0h2p0-4p2p0-4p2p0---------------------------
D|---------------------4p2p0-----------11h12h14--
A|---------------------------10h12h14------------
E|-----------------------------------------------



E|-------------------///19p17p15----------20^B^20-19-17-15--15-
B|----------10h12h14-------------19p17p15-----------------17---
G|-11h12h14----------------------------------------------------
D|-------------------------------------------------------------
A|-------------------------------------------------------------
E|-------------------------------------------------------------



E|-/15-------------------------------------------------------------
B|----17--17~~~----------------------------------------------------
G|------16---------------------------------------------------------
D|-----------------------------------------------------------------
A|-----------------------------------------------------------------
E|-----------------------------------------------------------------

end solo.

then the bridge is done once again, and the chorus riff three more times,
when
a Richie starts another solo for some sort of outro, for which I don't have
now
the patience to tab down. I think this will give you some help to start off.

Hope you enjoy!
-Vlad     
Добавлено: 28.09.2013
Другие материалы по этой песне:
  • Аккорды и текст

Страница создана 29.06.2012
http://primanota.ru/kotzen-richie/she-chords.htm
Привет, Гость.
Предлагаем пройти революционный курс по гитаре.
Подарок от PrimaNota.Ru, забирай!