PrimaNota.ru - самый крупный в мире бесплатный архив песенных текстов, аккордов, табулатур и нот


Kotzen, Richie - Shapes Of Things - таба, видео

Регистрация Запомнить меня
Войти через:  Facebook Google Twitter Vk Yandex Mail.ru

Kotzen, Richie - Shapes Of Things - таба, видео

Печатать
Просмотров: 89
Sound a little bit closer from the version in Brazil(2008's Live In São Paulo)

Intro

-------------------------------10-10-10-10--|
-------------------------------10-10-10-10--|
--7h9-------7-------9-----7----7--7--7--7---|   x3
--7h9-------7-------9-----7-----------------|
--------------------------------------------|
--------7-x-----x-x-----7-------------------|

---------------------------------------------|
---------------------------------------------|
---7h9-------7-------9--9---9--9-9-9-9-------|
---7h9-------7-------9--9---9--9-9-9-9-------|
---------------------------------------------|
---------7-x-----x-x-------------------------|


Verse

---------------------------------|
---------------------------------|
--4--4--x-4-x-4---9--9--x-9-x-9--|   x3
--4--4--x-4-x-4---9--9--x-9-x-9--|
--2--2--x-2-x-2---7--7--x-7-x-7--|
---------------------------------|

-------------------------------------------------------------------|
-------------------------------------------------------------------|
--9-9-9-9-9-9-9-8-8-8-8-8-8-8-6-6-6-6-6-6-6-6-4-4-4-4-44444444--| -|
--7-7-7-7-7-7-7-6-6-6-6-6-6-6-4-4-4-4-4-4-4-4-2-2-2-2-22222222-----|
-------------------------------------------------------------------|


Chorus

------------------------      -------------------|
------------------------      -------------------|
--9-9--------7-7-------- x3   --7-----7----------|
--9-9--------7-7--------      --7-----7-----4----|
--7-7--------5-5--------      --x-----x-----4----|
------------------------      --10----10----2----|
Добавлено: 06.12.2013
Другие материалы по этой песне:
  • Аккорды и текст

Страница создана 06.12.2013
http://primanota.ru/kotzen-richie/shapes-of-things-chords.htm
Привет, Гость.
Предлагаем пройти революционный курс по гитаре.
Подарок от PrimaNota.Ru, забирай!