PrimaNota.ru - самый крупный в мире бесплатный архив песенных текстов, аккордов, табулатур и нот


Kotzen, Richie - Paying Dues - таба, видео

Регистрация Запомнить меня
Войти через:  Facebook Google Twitter Vk Yandex Mail.ru

Kotzen, Richie - Paying Dues - таба, видео

Печатать
Просмотров: 93
"Paying Dues" by Richie Kotzen

No Solo !

L=last note/chord tied over

INTRO/CHORUS
      E  E  E  S S S S E  E  E     E  E  S S E  E  S S E  S S  
E||-----------------------------|-----------------------------|
B||---5--5--5--x-x-x-x-5--x--3--|--L--3--x-x-3--3--x-x-3--x-x-|
G||*--7--7--6--x-x-x-x-6--x--5--|--L--5--x-x-4--4--x-x-4--x-x-|
D||*--7--7--7--x-x-x-x-7--x--5--|--L--5--x-x-5--5--x-x-5--x-x-|
A||---x--x--x----------x-----x--|--L--x------x--x------x------|
E||---5--5--5----------5-----3--|--L--3------3--3------3------|
      T  T  T          T     T        T      T  T      T      


   E    E    E    S S S S  E   E    E    
----------------------------------------|
--11---11---10----x-x-x-x-10---x---13---|
--10---10---10----x-x-x-x-10---x---12---|
--10---10---10----x-x-x-x-10---x---12---|
---8----8----8-------------8-------10---|
--(8)--(8)--(8)-----------(8)-----(10)--|


  E    E   S S   E     E   S S   E   S S    
------------------------------------------||
--L---13---x-x--12----12---x-x--12---x-x--||
--L---12---x-x--12----12---x-x--12---x-x-*||
--L---12---x-x--12----12---x-x--12---x-x-*||
--L---10--------10----10--------10--------||
-----(10)------(10)--(10)------(10)-------||

OVERDUB for INTRO CHORUS
   funkout style strumming over these octaves                     
   W                                            W                 
---------------------------------------------|-------------------|
--10-----------------------------------------|--L----------------|
---x-----------------------------------------|-------------------|
---7-----------------------------------------|--L----------------|
---------------------------------------------|-------------------|
---------------------------------------------|-------------------|


   H.           E   E      H.           E   E     H.           E   E   
-----------------------|-----------------------|----------------------|
--13------------L--15--|---L------------L--17--|--L------------L--15--|
---x----------------x--|----------------L---x--|-------------------x--|
--10------------L--12--|---L------------L--14--|--L------------L--12--|
-----------------------|-----------------------|----------------------|
-----------------------|-----------------------|----------------------|


  E   E   E   E   Q     Q        E   E  Q     Q    Q       Q    Q    Q    Q     
-----------------------------|--------------------------|----------------------|
--L--15---L--13--13----12----|--10--10--8---------------|----------------------|
------x-------x---x-----x----|---x---x--x----10----9----|--7----5----4----4----|
--L--12---L--10--10-----9----|---7---7--5-----x----x----|--x----x----x----x----|
-----------------------------|----------------8----7----|--5----3----2----2----|
-----------------------------|--------------------------|----------------------|



VERSE
 E  E  Q     Q.     E       E   E   E  E  H                     
------------------------||--------------------------|-----------|
------------------------||------(3)-----------------|-----------|
-----0---------------2--||*--L---0---L--2-----------|-----------|
--------4b----L------2--||*--L---0---L--2-----------|-----------|
---------------------0--||---L--(2)-----0-----------|-----------|
------------------------||-------3---L--------------|-----------|


        hold bend                                                
  E  E  Q         E  E     E  E     E   E  E  E   E  E  E  E   3x
---------------------------------|-----------------------------||
---------------------------------|-----------------------------||
-----0------------0--------------|---------0---------------2--*||
--------4b--------L--4pbr--L--0--|------0--L---------------2--*||
---------------------------------|--3b--------3b--L--0-----0---||
---------------------------------|----------------------3------||


  H.           E  E     W                  
------------------5--|--L----------------||
------------------5--|--L----------------||
------------------7--|--L----------------||
------------------7--|--L----------------||
------------------5--|--L----------------||
---------------------|-------------------||




Duration Legend
---------------
W - whole
H - half
Q - quarter
E - 8th
S - 16th
T - 32nd
X - 64th
. - note dotted
|-n-|  - n-tuplets


Tablature Legend
----------------
L - tied note
x - dead note
g - grace note
(n) - ghost note
> - accentuded note
NH - natural harmonic
AH - artificial harmonic
TH - tapped harmonic
SH - semi harmonic
PH - pitch harmonic
h - hammer on
p - pull off
b - bend
br - bendRelease
pb - preBend
pbr - preBendRelease
brb - bendReleaseBend
\n/ - tremolo bar dip
\n - tremolo bar dive
-/n - tremolo bar Release up
/n\ - tremolo bar inverted dip
/n - tremolo bar return
-\n - tremolo bar Release down
S - shift slide
s - legato slide
/ -  slide into from below or out of upwards
\ -  slide into from above or out of downwards
~ - vibrato
W - wide vibrato
tr - trill
TP - tremolo picking
T - tapping
S - slap
P - pop
< - fade in
^ - brush up
v - brush down
Добавлено: 24.10.2013
Другие материалы по этой песне:
  • Аккорды и текст

Страница создана 24.10.2013
http://primanota.ru/kotzen-richie/paying-dues-chords.htm
Привет, Гость.
Предлагаем пройти революционный курс по гитаре.
Подарок от PrimaNota.Ru, забирай!