PrimaNota.ru - самый крупный в мире бесплатный архив песенных текстов, аккордов, табулатур и нот


Kotzen, Richie - Good For Me - таба, видео

Регистрация Запомнить меня
Войти через:  Facebook Google Twitter Vk Yandex Mail.ru

Kotzen, Richie - Good For Me - таба, видео

Печатать
Просмотров: 86
#----------------------------------PLEASENOTE---------------------------------#
This file is the author's own work and represents their interpretation of the song. You 
only use this file for private study, scholarship,or research.
#------------------------------------------------------------------------------#
Artist- RICHIE KOTZEN
SONG-GOOD FOR ME
ACOUTIC VER.
TAB BY Joseph(JOE) BRAMANTI
Questions comments? www.myspace.com/joebramanti

Stanard E Tuning

This tab is not perfect with respect to timing and strumming.
Listen to the track to dial it in.


E]-----------------------2--2--------------------------------l--------2--2-----------------------------------------------|l
B]-----------------4--4--2--2---------9----9-----------------l--4--4--2--2---------9----9--9-----------------------------|l
G]-----------------4--4--3--3---------9----9--9----9--9-9--9-l--4--4--3--3---------9----9--9------------9----------------|l
D]-----------------4--4--4--4---------9/11/9--9----9--9-9--9-l--4--4--4--4---------9/11/9--9------------9/11/9-----------|l
A]-----2--2/4sL/6--2--2--4--4------2--11---11-9/11-11-9/11/9-l--2--2--4--4------2--11---11-11------7-----------11-9------|l
E]-2/4-------------------2--2--2/4----9----9--0----0--0-0--0-l--------2--2--2/4----9----9--9---7/9---9-------------------|l

VERSE 1                                 up         up
E]-----------2---------------2----------------------------------l------------2-----------2--------------0---0------------|l
B]-----------2---------------2-------5--(5)-----5--(5)----------l------------2-----------2--------------0---0------------|l
G]-7/9\------3---------------3-------4--(4)-----4--(4)-----4-6~~l--7/9\------3-----------3--------1--1----1--------------|l
D]-6/8\------4---------------4-------x--(x)-----x--(x)-4/6------l--6/8\------4-----------4--------2--2----2------9----9--|l
A]-----------4---------------4-------4--(4)-----4--(4)----------l------------4-----------4--------2--2----2------9/11/9--|l
E]-----------2---------------2----------------------------------l------------2-----------2--------0--0----0----0-0----0--|l
         You were always the one who listened                              I was always somewhere else

E]--------------2-----2-------0-------0------0----0----0-----------------2----2------2------------0----------------------|l
B]--------------2-----2-------0-------0------0----0----0-----4------4----2----2------2-------0----0----------------------|l
G]-7/9----------3-----3-------2-------2------1----1----1-----4------4----3----3------3-------2--2------------------------|l
D]-6/8----------4-----4-------2-------2------2----2----2-----4------4----4----4------4-------2--2-----------------44-----|l
A]--------------4-----4-------0-------0------2----2----2-----2------2----4----4------4-------0--0----------22-4/6--------|l
E]--------------2-----2----------------------0----0----0-----------------2----2------2--------------0--2/4---------------|l
         Tried to be tried to be the one who always knew     Now I find the answer is with you                    I was

Chours
E]-------2---2------------4---4------------------------------------2-------------------------------------------------------|
B]--4-4--2---2------------5---5--------------------4-----4---------2-----------------------------5--5--5-------------------|
G]--4-4--3---3------------4/6-4--9----9---9-9--9---4-----4---------3-----------------------------4--4--4--------9--9-9--9--|
D]--4-4--4---4------------6---6--9----9---9-9--9---4-----4---------4-----------------------------x--x--x----9---9--9/11-9--|
A]--2-2--4---4--------2---4---4--9/11-11--9/11\9---2-----2---------4-------------------2---------4--4--4----9/11-11--------|
E]-------2---2--2/4--------------0----0---0-0--0-------------------2---------------2/4-------------------------------------|
    so   blind    but I  feel it now               I can see that your good for me   I hope your ready this time     I was

E]-------2---2------------4---4------------------------------------2------------------------------------------------------|l
B]--4-4--2---2------------5---5--------------------4-----4---------2-----------------------------5--5--5------------------|l
G]--4-4--3---3------------4/6-4--9----9---9-9--9---4-----4---------3-----------------------------4--4--4--------9--9-9----|l
D]--4-4--4---4------------6---6--9----9---9-9--9---4-----4---------4-----------------------------x--x--x----9---9--9-11---|l
A]--2-2--4---4--------2---4---4--9/11-11--9/11\9---2-----2---------4-------------------2---------4--4--4----9/11-11-------|l
E]-------2---2--2/4--------------0----0---0-0--0-------------------2---------------2/4------------------------------------|l
    so   tired    but I  feel alive                I can see that your good for me   I hope your ready this time

Verse 2(Repeat verse 1)

CHOURS

Bridge
E]--2----2-2----------------------0---0----0--2----2-2-----------------0--0--0---0----|l
B]--2----2-2----------------------0---0----0--2----2-2-----------------0--0--0---0----|l
G]--3----3-3-----------------1--1---1----1----3----3-3-----------------2--2--1---1----|l
D]--4----4-4--------------4--2--2---2----2----4----4-4--------------4--2--2--2---2----|l
A]--4----4-4--------2-4/6----2--2---2----2----4----4-4--------2-4/6----4--4--x---x----|l
E]--2----2-2--2-2-4----------0--0---0----0----2----2-2--2-2-4----------------4---4----|l

E]--2------------------------0--0--0--0--0--0--0--0--0--0--0--0--0--0--0--0---------------------------------|l
B]--2------------------------0--0--0--0--0--0--0--0--0--0--0--0--0--0--0--0---------------------------------|l
G]--3------------------------2--2--1--1--1--2--2--2--2--2--1--1--1--1--1--1---------------------------------|l then use chours chords(chopy)for ending
D]--4---------------------4--2--2--2--2--2--2--2--2--2--2--2--2--2--2--2--2-l-------------------------------|                              Breakdown.
A]--4---------------2-4/6----0--0--2--2--2--0--0--0--0--0--2--2--2--2--2--2---------------------------------|l
E]--2---------2-2-4----------------0--0--0-----------------0--0--0--0--0--0---------------------------------|l

You were always the one who listened
I was always somewhere else
I tried to be the one who always knew
Now i find the answer is with you

I was so blind but i feel it now
I can see that your good for me
I hope your ready this time
I was so tired but i feel alive
I can see that your good for me
I hope your ready this time

You know you help me to understand
All the things i left to chance
So can you be someone to hold on to
I can be the one you call your man

I was so blind but i feel it now
I can see that your good for me
I hope your ready this time
I was so tired but i feel alive
I can see that your good for me
I hope your ready this time
Добавлено: 26.10.2013
Другие материалы по этой песне:
  • Аккорды и текст

Страница создана 26.10.2013
http://primanota.ru/kotzen-richie/good-for-me-chords.htm
Привет, Гость.
Предлагаем пройти революционный курс по гитаре.
Подарок от PrimaNota.Ru, забирай!