PrimaNota.ru - самый крупный в мире бесплатный архив песенных текстов, аккордов, табулатур и нот


Kottonmouth Kings - Dying Daze - текст песни, таба, видео

Регистрация Запомнить меня
Войти через:  Facebook Google Twitter Vk Yandex Mail.ru

Kottonmouth Kings - Dying Daze - текст песни, таба, видео

Печатать
Просмотров: 90
Tabbed by Mojo_ryder
email: mojo.ryder141@yahoo.com

Tuning: Standard

-Intro-
e|-----------------------------------------|
B|-----------------------------------------|
G|---5==------10==-------------------------|
D|---5==------10==-----10==-----5==-------5|
A|---3==-------8==-----10==-----5==-------5|
E|----------------------8==-----3==-------3|


-Chorus-
e|--------------------------------------|
B|--------------------------------------|
G|---5-5-----10-10---------------12-12--|
D|---5-5-----10-10-----10-10-----12-12--|
A|---3-3------8--8-----10-10-----10-10--|
E|----------------------8--8------------|


-Verse-
e|---------------------------------------------|
B|---------------------------------------------|
G|-------5-5------10-10-------------------12-12|
D|-------5-5------10-10------10-10--------12-12|
A|-------3-3-------8--8------10-10--------10-10|
E|---0-0------0-0--------0-0--8--8---0-0-------|
     . .     . .      . .      .  .

e|------------------------------------------------|
B|------------------------------------------------|
G|-------5-5------10-10----------------------12-12|
D|-------5-5------10-10--10-10-10-10-10-10---12-12|
A|-------3-3-------8--8--10-10-10-10-10-10---10-10|
E|---0-0------0-0---------8--8--8--8--8--8--------|
     . .     . .


-"Ridin' till my dyin' daze"-      X3
e|-----------------------------------|----|
B|-----------------------------------|----|
G|-----------------------------------|----|
D|---10==-----12=--------------------|--12|
A|---10==-----12=---12-12-12-12-12-12|--12|
E|----8==-----10=---10-10-10-10-10-10|--10|

-Rap Part-
e|---------|
B|---------|
G|---8-7---|
D|---8-7---|
A|---6-5---|
E|---------|
Добавлено: 20.10.2013
Другие материалы по этой песне:
  • Аккорды и текст

Страница создана 19.05.2012
http://primanota.ru/kottonmouth-kings/dying-daze-chords.htm
Привет, Гость.
Предлагаем пройти революционный курс по гитаре.
Подарок от PrimaNota.Ru, забирай!