PrimaNota.ru - самый крупный в мире бесплатный архив песенных текстов, аккордов, табулатур и нот


Kotiteollisuus - Varjonkukka - таба, видео

Регистрация Запомнить меня
Войти через:  Facebook Google Twitter Vk Yandex Mail.ru

Kotiteollisuus - Varjonkukka - таба, видео

Печатать
Просмотров: 105
-------------------------------------------------------------------------------
                             Varjonkukka - Kotiteollisuus
-------------------------------------------------------------------------------
Tabbed by:
Email: Soppennn@hotmail.com

Tuning:C#G#C#F#A#D#
Intro/Chorus
Lead guitar
e|---------------------------------------------------------------------------|
B|---------------------------------------------------------------------------|
G|7-7-7-7-7-7-7-7-12-12-12-10-10-10-9-9-5-5-5-5-5-5-5-5-12-12-12-10-10-10-9-9|
D|x-x-x-x-x-x-x-x-x--x--x--x--x--x--x-x-x-x-x-x-x-x-x-x-x--x--x--x--x--x--x-x|
A|5-5-5-5-5-5-5-5-10-10-10-8--8--8--7-7-3-3-3-3-3-3-3-3-10-10-10-8--8--8--7-7|
E|---------------------------------------------------------------------------|
Rythm Guitar
e|---------------------------------------------------------------------------|
B|---------------------------------------------------------------------------|
G|--------------------------------------5-5-5-5-5-5-5-5----------------------|
D|0-0-0-0-0-0-0-0-5-5-5-5-5-5-5-5-------5-5-5-5-5-5-5-5-5-5-5-5-5-5-5-5------|
A|0-0-0-0-0-0-0-0-5-5-5-5-5-5-5-5-------3-3-3-3-3-3-3-3-5-5-5-5-5-5-5-5------|
E|0-0-0-0-0-0-0-0-5-5-5-5-5-5-5-5-----------------------5-5-5-5-5-5-5-5------|
_____________________________________________________________________________
Lead Guitar
e|---------------------------------------------------------------------------|
B|---------------------------------------------------------------------------|
G|7-7-7-7-7-7-7-7-9-9-9-9-9-9-9-9-5-5-5-5-5-5-5-5-12-12-12-10-10-10-9-9------|
D|x-x-x-x-x-x-x-x-x-x-x-x-x-x-x-x-x-x-x-x-x-x-x-x-x--x--x--x--x--x--x-x------|
A|5-5-5-5-5-5-5-5-7-7-7-7-7-7-7-7-3-3-3-3-3-3-3-3-10-10-10-8--8--8--7-7------|
E|---------------------------------------------------------------------------|
Rythm Guitar
e|---------------------------------------------------------------------------|
B|---------------------------------------------------------------------------|
G|--------------------------------5-5-5-5-5-5-5-5----------------------------|
D|0-0-0-0-0-0-0-0-2-2-2-2-2-2-2-2-5-5-5-5-5-5-5-5-5-5-5-5-5-5-5-5------------|
A|0-0-0-0-0-0-0-0-2-2-2-2-2-2-2-2-3-3-3-3-3-3-3-3-5-5-5-5-5-5-5-5------------|
E|0-0-0-0-0-0-0-0-2-2-2-2-2-2-2-2-----------------5-5-5-5-5-5-5-5------------|
_____________________________________________________________________________
Verse (Palm Mute all)
e|---------------------------------------------------------------------------|
B|---------------------------------------------------------------------------|
G|---------------------------------------------------------------------------|
D|--------------------------------5-5-5-5-5-5-5-5----------------------------|
A|0-0-0-0-0-0-0-0-3-3-3-3-3-3-3-3-3-3-3-3-3-3-3-3-5-5-5-5-5-5-5-5------------|
E|0-0-0-0-0-0-0-0-3-3-3-3-3-3-3-3-----------------5-5-5-5-5-5-5-5------------|




| /  slide up
| \  slide down
| h  hammer-on
| p  pull-off
| ~  vibrato
| +  harmonic
| x  Mute note
=============================================================================
Добавлено: 28.05.2012
Другие материалы по этой песне:
  • Аккорды и текст

Страница создана 28.05.2012
http://primanota.ru/kotiteollisuus/varjonkukka-chords.htm
Привет, Гость.
Предлагаем пройти революционный курс по гитаре.
Подарок от PrimaNota.Ru, забирай!