PrimaNota.ru - самый крупный в мире бесплатный архив песенных текстов, аккордов, табулатур и нот


Kotiteollisuus - Soitellen Sotaan - таба, видео

Регистрация Запомнить меня
Войти через:  Facebook Google Twitter Vk Yandex Mail.ru

Kotiteollisuus - Soitellen Sotaan - таба, видео

Печатать
Просмотров: 114

KOTITEOLLISUUS - SOITELLEN SOTAAN



VIRE: C#-G#-C#-F#-A#-D#

x = dempattuna

SOINNUT SELVITTI: JohnnyVeismylla (mikes___"at"hotmail.com)



ALKURIFFI:

|------------------------------------------------------------------|
|------------------------------------------------------------------|
|------------------------------------------------------------------|
|------------------------------------------------------------------|
|-----3----2-2-2-2---3----2-2-2-2---3----2-2-2-2-2-2-2-2-----2-2---|
|---2---2--2-2-2-2-2---2--2-2-2-2-2---2--2-2-2-2-2-2-2-2-222-2-2---|
           x x x x        x x x x        x x x x x x x x xxx x x


|----------------------------------------------------------------|
|----------------------------------------------------------------|
|----------------------------------------------------------------|
|----------------------------------------------------------------|
|-----3----2-2-2-2---3----2-2-2-2---3----2-2-2-0-2-2-2-3-3-3-0---|
|---2---2--2-2-2-2-2---2--2-2-2-2-2---2--2-2-2-0-2-2-2-3-3-3-0---|
           x x x x        x x x x        x x x




SAKEISTO:(Kuuntele rytmitys levylta)

|-------------------------------------------------------------|
|-------------------------------------------------------------|
|-------------------------------------------------------------|
|-------------------------------------------------------------|
|---0-0-0-0-0-0-----0-0-0-1-1-1-0-0-0-0-0-0-----0-0-0-1-1-1---|
|---0-0-0-0-0-0-000-0-0-0-1-1-1-0-0-0-0-0-0-000-0-0-0-1-1-1---|
    x x x x x x xxx x x x       x x x x x x xxx x x x


|----------------------------------------------------------|
|----------------------------------------------------------|
|----------------------------------------------------------|
|----------------------------------------------------------|
|--3-3-3-3-3-3-----3-3-3-4-4-4-3-3-3-3-3-3-----3-3-3-1-1---|
|--3-3-3-3-3-3-333-3-3-3-4-4-4-3-3-3-3-3-3-333-3-3-3-1-1---|
   x x x x x x xxx xxx x       x x x x x x xxx x x x



VALIOSA:


|--------------------------------|
|--------------------------------|
|--------------------------------|
|--------------------------------|
|--------------------------------|
|---0-0-0-10---0-0-0-9---0-0-7---|



KERTSI:


|---------------------------------------------------------------------|
|---------------------------------------------------------------------|
|---------------------------------------------------------------------|
|---8-8-8-8-8-8-8-8-8-8-8-8-8-8-8-8-3-3-3-3-3-3-3-3-3-3-3-3-3-3-3-3---|
|---8-8-8-8-8-8-8-8-8-8-8-8-8-8-8-8-3-3-3-3-3-3-3-3-3-3-3-3-3-3-3-3---|
|---8-8-8-8-8-8-8-8-8-8-8-8-8-8-8-8-3-3-3-3-3-3-3-3-3-3-3-3-3-3-3-3---|


|---------------------------------------------------------------------|
|---------------------------------------------------------------------|
|---------------------------------------------------------------------|
|---5-5-5-5-5-5-5-5-5-5-5-5-5-5-5-5-6-6-6-6-6-6-6-6-1-1-1-1-1-1-1-1---|
|---3-3-3-3-3-3-3-3-3-3-3-3-3-3-3-3-6-6-6-6-6-6-6-6-1-1-1-1-1-1-1-1---|
|-----------------------------------6-6-6-6-6-6-6-6-1-1-1-1-1-1-1-1---|



KERTSI TOISELLA KERTAA:


|----------------------------------------------------------------|
|----------------------------------------------------------------|
|----------------------------------------------------------------|
|---8-8----8--7--8--3-3--------5-5-5-5-5-5-5-5-5-5-5-5-5-5-5-5---|
|---8-8----8--7--8--3-3--------3-3-3-3-3-3-3-3-3-3-3-3-3-3-3-3---|
|---8-8----8--7--8--3-3------------------------------------------|


|-------------------------------------|
|-------------------------------------|
|-------------------------------------|
|---6-6-6-6-6-6-6-6-1-1-1-1-1-1-1-1---|
|---6-6-6-6-6-6-6-6-1-1-1-1-1-1-1-1---|
|---6-6-6-6-6-6-6-6-1-1-1-1-1-1-1-1---|
Добавлено: 02.06.2012
Другие материалы по этой песне:

Страница создана 02.06.2012
http://primanota.ru/kotiteollisuus/soitellen-sotaan-chords.htm
Привет, Гость.
Предлагаем пройти революционный курс по гитаре.
Подарок от PrimaNota.Ru, забирай!