PrimaNota.ru - самый крупный в мире бесплатный архив песенных текстов, аккордов, табулатур и нот


Kotiteollisuus - Mina Olen - таба, видео

Регистрация Запомнить меня
Войти через:  Facebook Google Twitter Vk Yandex Mail.ru

Kotiteollisuus - Mina Olen - таба, видео

Печатать
Просмотров: 173
Авторы музыки: Kotiteollisuus
Авторы текста: Jouni Hynynen
                      Kotiteollisuus
                         Minä Olen
                    Helvetistä Itään - 2003
                       Megamania (c)

Viritys: Db Ab Db Gb Bb Eb

Intro:

Kitara 1 ja 2:

eb|--------------|
Bb|-kitara 1:----|
Gb|-7-5-4-5---4--|
Db|-kitara 2:----|
Ab|-5-3-2-3---2--|
Db|--------------|

Kitara 1:         x3
eb|-----------------|-----------------|
Bb|-----------------|-----------------|
Gb|-5-4-5-4-5-4-5-4-|-7-5-4-5----4----|
Db|-----------------|-----------------|
Ab|-----------------|-----------------|
Db|-----------------|-----------------|

Kitara 2:
eb|-----------------|-----------------|-----------------|-----------------|
Bb|-----------------|-----------------|-----------------|-----------------|
Gb|-2-2-2-2-2-2-2-2-|-----------------|-5-5-5-5-5-5-5-5-|-----------------|
Db|-2-2-2-2-2-2-2-2-|-3-3-3-3-3-3-3-3-|-5-5-5-5-5-5-5-5-|-----------------|
Ab|-0-0-0-0-0-0-0-0-|-3-3-3-3-3-3-3-3-|-3-3-3-3-3-3-3-3-|-5-3-2-3---2-----|
Db|-----------------|-3-3-3-3-3-3-3-3-|-----------------|-----------------|

Verse:

Kitarat 1 % 2:

    Jotkut vaihtavat öisin...
eb|-----------------|-----------------|
Bb|-----------------|-----------------|
Gb|-5---------------|-(5)-------------|
Db|-5---------------|-(5)-------------|
Ab|-3---------------|-(3)-------------|
Db|-----------------|-----------------|

    Ja se mies,    Jussi...
eb|-----------------|-----------------|-----------------|-----------------|
Bb|-----------------|-----------------|-----------------|-----------------|
Gb|-----------------|-----------------|-----------------|-----------------|
Db|-palm mute-------|-----------------|-----------------|-----------------|
Ab|-3-3-3-3-3-3-3-3-|-3-3-3-3-3-3-0-0-|-----------------|-----------------|
Db|-----------------|-----------------|-5-5-5-5-5-5-5-5-|-5-5-5-5-5-5-7-7-|

eb|-----------------|-----------------|-----------------|-----------------|
Bb|-----------------|-----------------|-----------------|-----------------|
Gb|-----------------|-----------------|-----------------|-----------------|
Db|-----------------|-----------------|-----------------|-----------------|
Ab|-----------------|-----------------|-----------------|-----------------|
Db|-8-8-8-8-8-8-8-8-|-8-8-8-8-8-8-7-7-|-3-3-3-3-3-3-3-3-|-3-3-3-3-3-3-5-5-|

Pre-Chorus:
(Kylmä kuten sisälläni)
   on
eb|-----------------|--------------|
Bb|-----------------|-kitara 1:----|
Gb|-5---------------|-7-5-4-5---4--|
Db|-5---------------|-kitara 2:----|
Ab|-3---------------|-5-3-2-3---2--|
Db|-----------------|--------------|

Chorus:
  Kuka minä olen ja elän ja...
 Kitara 1:
eb|-----------------|-----------------|-----------------|-----------------|x4
Bb|-----------------|-----------------|-----------------|-----------------|
Gb|-2-5-4-5-2-5-4-5-|-2-5-4-5-2-5-4-5-|-0-5-4-5-0-5-4-5-|-0-5-4-5-7-5-4-5-|
Db|-----------------|-----------------|-----------------|-----------------|
Ab|-----------------|-----------------|-----------------|-----------------|
Db|-----------------|-----------------|-----------------|-----------------|

Kitara 2:
eb|-----------------|-----------------|-----------------|-----------------|x4
Bb|-----------------|-----------------|-----------------|-----------------|
Gb|-2-2-2-2-2-2-2-2-|-----------------|-5-5-5-5-5-5-5-5-|-----------------|
Db|-2-2-2-2-2-2-2-2-|-3-3-3-3-3-3-3-3-|-5-5-5-5-5-5-5-5-|-5-5-5-5-5-5-5-5-|
Ab|-0-0-0-0-0-0-0-0-|-3-3-3-3-3-3-3-3-|-3-3-3-3-3-3-3-3-|-5-5-5-5-5-5-5-5-|
Db|-----------------|-3-3-3-3-3-3-3-3-|-----------------|-5-5-5-5-5-5-5-5-|

Bridge (palm mute):

eb|-----------------|-----------------|x8
Bb|-----------------|-----------------|
Gb|-----------------|-----------------|
Db|-0---------------|-----------------|
Ab|-0---------------|-----------------|
Db|-0---0-0-0-0-0-2-|(2)-0-0-0-0-0-2--|

Sitte tulee tämmöne (Chorus var.):

|-----------------|-----------------|-----------------|-----------------|
|-----------------|-----------------|-----------------|-----------------|
|-2---------------|-----------------|-5---------------|-----------------|
|-2---------------|-5---------------|-5---------------|-3-3-3-3-3-3-3-3-|
|-0---------------|-5---------------|-3---------------|-3-3-3-3-3-3-3-3-|
|-----------------|-5---------------|-----------------|-3-3-3-3-3-3-3-3-|

Elikkäs biisin rakenne ois tämmöne:

Intro
Verse
Pre-Chorus
Chorus
Verse
Bridge
Chorus var.
Chorus
Chorus
Outro (Sama ku intro)
Добавлено: 15.06.2012
Другие материалы по этой песне:

Страница создана 09.05.2012
http://primanota.ru/kotiteollisuus/mina-olen-chords.htm
Привет, Гость.
Предлагаем пройти революционный курс по гитаре.
Подарок от PrimaNota.Ru, забирай!