PrimaNota.ru - самый крупный в мире бесплатный архив песенных текстов, аккордов, табулатур и нот


Kotiteollisuus - Maailmanloppu - таба, видео

Регистрация Запомнить меня
Войти через:  Facebook Google Twitter Vk Yandex Mail.ru

Kotiteollisuus - Maailmanloppu - таба, видео

Печатать
Просмотров: 105
Уроки эстрадного вокала в Санкт-Петербурге
-------------------------------------------------------------------------------
                            Maailmanloppu - Kotiteollisuus
-------------------------------------------------------------------------------
Band: Kotiteollisuus
Album: Maailmanloppu
Song: Maailmanloppu

Tuning: C#,G#,C#,F#,A#,D#


   Intro part one (2x)       Intro part two (2x) 0.12
D#|----------------------|------------------------------------|
A#|----------------------|------------------------------------|
F#|--2>-------------2>---|---22222222----------22222222-------|
C#|--2>------5>-----2>---|---22222222-55555555-22222222-------|
G#|--0>------5>-----0>---|---00000000-55555555-00000000-------|
C#|----------5>----------|------------55555555----------------|


   Verse part one (2x) 0.24
D#|-----------------------------------------------------------|
A#|-----------------------------------------------------------|
F#|--2--2--2--222--2--2--2--22------------2--2--2--222--------|
C#|--2--2--2--222--2--2--2--225--5--5--5552--2--2--222--------|
G#|--00000000000000000000000005--5--5--555000000000000--------|
C#|---------------------------555555555555--------------------|


   Verse part two (1x) 0.36
D#|----------------------------------------------------------------------------------------|
A#|----------------------------------------------------------------------------------------|
F#|--------------------------2--2--2--222--2--2--2--222-------------------------7>---------|
C#|--3--3--3--3335--5--5--5552--2--2--222--2--2--2--2223--3--3--3335--5--5--555-7>---------|
G#|--3--3--3--3335--5--5--555000000000000000000000000003--3--3--3335--5--5--555-5>---------|
C#|--333333333333555555555555--------------------------333333333333555555555555------------|


  Chords (4x)
D#|-------------------------------------------------------|
A#|-------------------------------------------------------|
F#|--22222222222222---------------------------------------|
C#|--22222222222222555555555555500000000000000------------|
G#|--00000000000000555555555555500000000000000------------|
C#|----------------555555555555500000000000000------------|

After chords: Intro part two (2x),Verse part one (2x) and two (1x), Chords (4x).

After that only Bass while Jouni sings "Odota maailmanloppua vain" 2x and then guitar comes in on the 3.
time muteing the same chords as in the chords while Jouni sing "Odota maailmanloppua vain" two more times.
Then into chords again. 

The ending is the same as intro.


Listen to the song for the timing. 
This is only the way i play it, and i Think it sounds good. I'm not sure if its right.
************************************

>   Let ring


************************************
Добавлено: 14.12.2015
Другие материалы по этой песне:

Страница создана 30.12.2013
http://primanota.ru/kotiteollisuus/maailmanloppu-chords.htm
Привет, Гость.
Предлагаем пройти революционный курс по гитаре.
Подарок от PrimaNota.Ru, забирай!