PrimaNota.ru - самый крупный в мире бесплатный архив песенных текстов, аккордов, табулатур и нот


Kotiteollisuus - Kukko Laulaa - таба, видео

Регистрация Запомнить меня
Войти через:  Facebook Google Twitter Vk Yandex Mail.ru

Kotiteollisuus - Kukko Laulaa - таба, видео

Печатать
Просмотров: 141
Kitara Vire: C-G-C-F-A-D Selvitti: Henkka * = Dempattuna

D----------------------------------------------------------------------------|
A----------------------------------------------------------------------------|
F----------------------------------------------------------------------------|
C--0-0-12-11-10-8-7-6-5--5-7-7-7-7-7-7---------------------------------------|
G--0-0-12-11-10-8-7-6-5--5-7-7-7-7-7-7---------------------------------------|
C--0-0-12-11-10-8-7-6-5--5-7-7-7-7-7-7-5b------------------------------------|

D----------------------------------------------------------------------------|
A----------------------------------------------------------------------------|
F----------------------------------------------------------------------------|
C--0-0-0-12-11-10-8-7-6-5--5-7-7-7-7-7-7-------------------------------------|
G--0-0-0-12-11-10-8-7-6-5--5-7-7-7-7-7-7-------------------------------------|
C--0-0-0-12-11-10-8-7-6-5--5-7-7-7-7-7-7-5b----------------------------------|

D----------------------------------------------------------------------------|
A----------------------------------------------------------------------------|
F----------------------------------------------------------------------------|
C--0-0-0-12-11-10-8-7-6-5--5-7-7-7-7-7-7-------------------------------------|
G--0-0-0-12-11-10-8-7-6-5--5-7-7-7-7-7-7-------------------------------------|
C--0-0-0-12-11-10-8-7-6-5--5-7-7-7-7-7-7-5b----------------------------------|
   * * *

Selvitti: henkka 2007 (From Single Tämän taivaan alla) Track 2 (Bonus Track)
Добавлено: 23.06.2012
Другие материалы по этой песне:
  • Аккорды и текст

Страница создана 05.04.2012
http://primanota.ru/kotiteollisuus/kukko-laulaa-chords.htm
Привет, Гость.
Предлагаем пройти революционный курс по гитаре.
Подарок от PrimaNota.Ru, забирай!