PrimaNota.ru - самый крупный в мире бесплатный архив песенных текстов, аккордов, табулатур и нот


Kotiteollisuus - Emmauksen Tiella - таба, видео

Регистрация Запомнить меня
Войти через:  Facebook Google Twitter Vk Yandex Mail.ru

Kotiteollisuus - Emmauksen Tiella - таба, видео

Печатать
Просмотров: 69
-------------------------------------------------------------------------------
                             Emmauksen tiellä - Kotiteollisuus
-------------------------------------------------------------------------------


Tuning:C#,G#,C#,F#,A#,D#


Intro: 2x

D#|--------------------------------------|
A#|--------------------------------------|
F#|--77--777-77-777----------------------|
C#|--77--777-77-777--5555555555----------|
G#|--55--555-55-555--5555555555----------|
C#|------------------5555555555----------|


Verse: Part 1 5x
       Part 2 1x
       Part 3 1x


   Part 1
D#|---------------------|
A#|---------------------|
F#|-77--777-77--777-----|
C#|-77--777-77--777-----|
G#|-55--555-55--555-----|
C#|---------------------|
   
   Part 2
D#|--------------------------------------------------------------------------------------|
A#|--------------------------------------------------------------------------------------|
F#|-77--777-77--777-----------------77--777-77--777--------------------------------------|
C#|-77--777-77--777-55--555-55--555-77--777-77--777-55--555-55--555-22--222-22--222------|
G#|-55--555-55--555-55--555-55--555-55--555-55--555-55--555-55--555-22--222-22--222------|
C#|-----------------55--555-55--555-----------------55--555-55--555-22--222-22--222------|
   

   Part 3
D#|--------------------------------------------------------------------------------------------|
A#|--------------------------------------------------------------------------------------------|
F#|--77--777-77--777---------------------------------------------------------------------------|
C#|--77--777-77--777-55--555-55--555--99--999-99--999--77--777-77--777--55--555-55--555--------|
G#|--55--555-55--555-55--555-55--555--99--999-99--999--77--777-77--777--55--555-55--555--------|
C#|------------------55--555-55--555--99--999-99--999--77--777-77--777--55--555-55--555--------|




Pre chords: 1x

D#|-----------------------------------------------|
A#|-----------------------------------------------|
F#|-----------------------------------------------|
C#|--99--999-99--999-77--777-77--777-2357---------|
G#|--99--999-99--999-77--777-77--777-2357---------|
C#|--99--999-99--999-77--777-77--777-2357---------|




Chords: 2x

D#|----------------------------------------------------|
A#|----------------------------------------------------|
F#|--77777777------------------------------------------|
C#|--77777777-77777777-910101010101010-5555555555------|
G#|--55555555-77777777-910101010101010-5555555555------|
C#|-----------77777777-910101010101010-5555555555------|

After that do Intro, Verse (Part 2 and 3), Pre Chords and Chords.


   Bridge 1x
D#|--------------------------------------------------------|
A#|--------------------------------------------------------|
F#|--------------------------------------------------------|
C#|--99999999-7>--99999999-5>-99999999-7>--99999999-5>-----|
G#|--99999999-7>--99999999-5>-99999999-7>--99999999-5>-----|
C#|--99999999-7>--99999999-5>-99999999-7>--99999999-5>-----|

Song goes:
Intro
Verse (Part 1, 2 and 3)
Pre chords
Chords
Intro
Verse
Pre chords
Chords
Bridge
Chords


Listen to the song for timing.
************************************

| > =Let ring

************************************

Hope you enjoyd and get to learn this song.
Добавлено: 14.12.2015
Другие материалы по этой песне:
  • Аккорды и текст

Страница создана 14.12.2015
http://primanota.ru/kotiteollisuus/emmauksen-tiella-chords.htm
Привет, Гость.
Предлагаем пройти революционный курс по гитаре.
Подарок от PrimaNota.Ru, забирай!