PrimaNota.ru - самый крупный в мире бесплатный архив песенных текстов, аккордов, табулатур и нот


Kotaro Oshio - Dear - таба, видео

Регистрация Запомнить меня
Войти через:  Facebook Google Twitter Vk Yandex Mail.ru

Kotaro Oshio - Dear - таба, видео

Печатать
Просмотров: 492
Dear - Kotaro Oshio - Be Happy
BPM = 60

     Emaj7                                 A6/E
     |----3---|       |--3--|  |--3--|     |---3---|  |--3--|  |--3--|
     E     E  E  Q    E  E  E  Q     E     E    E  E  E  E  E  E  E  E  Q
E||--------------0-------------0--------|-------------0----------------------|
B||--9----------------7-------------10--|--9-------------9-----7--------7----|
G||--------8-------------6--------------|----------8--------8--------6-------|
D||-----------9-------------7-----------|-------9-----------------7----------|
A||-------------------------------------|------------------------------------|
E||--0----------------0-----------------|--0-------------------0-------------|


  Emaj7                A6/E
  |----3---|  |--3--|  |---3---|  |---3--|
  E     E  E  E  E  E  E    E  E  Q      E
--------------0-----------------------------|
--9--------------9-----7----------7S----10--|
--------8-----------8----------6------------|
-----------9----------------7---------------|
--------------------------------------------|
--0--------------------0--------------------|


  Emaj7                A6/E
  |----3---|  |--3--|  |---3---|
  E     E  E  E  E  E  E    E  E  Q
--------------0------------------------|
--9--------------9-----7----------7----|
-----------8--------8----------6-------|
--------9-------------------7----------|
---------------------------------------|
--0--------------------0---------------|


    E
    |--3--|  |--3--|  |--3--|  |--3--|
    E  E  E  E  E  E  E  E  E  E  E  E
|---0--------0--------2--------4--------|
|------0--------0--------0--------0-----|
|*--------1--------1--------1--------1--|
|*--------------------------------------|
|---------------------------------------|
|---0-----------------0-----------------|


  F#7/E
  |----3---|  |--3--|  |--3--|  |--3--|
  E     E  E  E  E  E  E  E  E  E  E  E
--------------4--------2-----------------|
--2--------------2--------2-----------0--|
--------3-----------3--------3-----3-----|
-----------4--------------------4--------|
-----------------------------------------|
--0--------------------0-----------------|


  B7
  |--3--|  |--3--|  |--3--|  |--3--|
  E  E  E  E  E  E  E  E  E  E  E  E
-----------0--------2--------7--------|
--4-----------0--------0--------0-----|
-----2-----------2--------2--------4--|
--------4-----------------------------|
--2-----------------2--------6--------|
--------------------------------------|


  E                          B7/D#
  |--3--|  |--3--|  |--3--|  |----3---|
  E  E  E  E  E  E  E  E  E  E     E  E
--5--------4--------4--------2-----------|
-----0--------0--------0-----------0-----|
--------4--------4--------4-----------2--|
-----------------------------1-----------|
-----------------------------------------|
--0-----------------0--------------------|


  C#m7                                     F#
  |---3---|  |--3--|  |--3--|  |--3--|     |--3--|  |--3--|  |--3--|  |--3--|
  E    E  E  E  E  E  E  E  E  E  E  E     E  E  E  E  E  E  E  E  E  E  E  E
--0----------0--------2--------4--------|-----------4--------2-----------------|
-------0--------0--------0--------0-----|--2-----------2--------2-----------0--|
----------4--------4--------4--------4--|-----3-----------3--------3-----3-----|
----------------------------------------|--------4--------------------4--------|
--4-------------------4-----------------|--------------------------------------|
----------------------------------------|--2-----------------2-----------------|


  B7sus4       B7                            Esus4                E
  |----3----|  |--3--|  |--3--|  |--3--|     |----3---|  |--3--|
  E      E  E  E  E  E  E  E  E  E  E  E     E     E  E  E  E  E  H
--0---------------------4--------2--------|--0------------------------------||
---------0-----4-----------0--------0-----|--------0-----------0------------||
------------2-----2-----------2--------2--|-----------2-----2-----1--------*||
---------------------4--------------------|--------------4-----------------*||
--2---------------------2-----------------|---------------------------------||
------------------------------------------|--0--------------------0---------||


  Esus4                E
  |----3---|  |--3--|  |--3--|  |--3--|
  E     E  E  E  E  E  E  E  E  E  E  E
--0--------------------0-----4-----5-----|
--------0-----------0-----0-----0-----0--|
-----------2-----2-----------------------|
--------------4--------------------------|
-----------------------------------------|
--0--------------------0-----------------|


  Aadd9
  |----3---|  |--3--|  |--3--|  |--3--|
  E     E  E  E  E  E  E  E  E  E  E  E
--7--------7-----7-----7-----4-----5-----|
--------------------0-----------------0--|
--------------6-----------------6--------|
--------7-----------------7--------------|
--0--------------------0-----------------|
-----------------------------------------|


  Emaj7
  |----3----|  |---3--|  |--3--|  |--3--|
  E     E   E  E   E  E  E  E  E  E  E  E
--7--------12-----11-----7-----0-----------|
--------0------0------0-----------0--7-----|
----------------------------------------8--|
----------------------------9--------------|
-------------------------------------------|
--0----------------------0-----------------|


  Amaj7
  |----3---|  |--3--|  |--3--|  |--3--|
  E     E  E  E  E  E  E  E  E  E  E  E
-----------------------------9-----------|
--9--------9-----9-----9-----------9-----|
--------------------9-----------------9--|
--------7-----7-----------7-----7--------|
--0--------------------0-----------------|
-----------------------------------------|


  Emaj7
  |----3---|  |--3--|  |--3--|  |--3--|
  E     E  E  E  E  E  E  E  E  E  E  E
--7--------------------0-----4-----5-----|
--------------0-----------0-----0-----0--|
-----------8-----8-----------7-----7-----|
--------9-----------9--------------------|
-----------------------------------------|
--0--------------------0-----------------|


  Aadd9
  |----3---|  |--3--|  |--3--|  |--3--|
  E     E  E  E  E  E  E  E  E  E  E  E
--7--------7-----7-----7-----4-----5-----|
--------------------0-----------------0--|
--------------6-----------------6--------|
--------7-----------------7--------------|
--0--------------------0-----------------|
-----------------------------------------|


  Aadd9                                       F#7
                                                                ^
  |----3----|  |---3--|  |--3--|  |--3--|     |---3--|  |-3|    |----3----|
  E     E   E  E   E  E  E  E  E  E  E  E     E   E  E  E  Q    Q    Q    Q
--7--------12-----11-----7-----0-----------|-------------------------9---------|
--------0------0------0-----------0--7-----|--9------9-----9----9---------9----|
----------------------------------------8--|---------9-----9----9--------------|
----------------------------9--------------|------8-----8-------8--------------|
-------------------------------------------|--9-----------------9--------------|
--0----------------------0-----------------|-----------------------------------|


  Bsus4                B           E
  |----3---|  |--3--|              |--3--|  |--3--|  |--3--|  |--3--|
  E     E  E  E  E  E  H           E  E  E  E  E  E  E  E  E  E  E  E
--------------------------------|--0--------0--------2--------4--------|
--7--------------7--------------|-----0--------0--------0--------0-----|
-----------9--------9--9--------|--------1--------1--------1--------1--|
--------9-----9-----------------|--------------------------------------|
--------------------------------|--------------------------------------|
--7--------------------7--------|--0-----------------0-----------------|


  F#7/E
  |----3---|  |--3--|  |--3--|  |--3--|
  E     E  E  E  E  E  E  E  E  E  E  E
--------------4--------2-----------------|
--2--------------2--------2-----------0--|
--------3-----------3--------3-----3-----|
-----------4--------------------4--------|
-----------------------------------------|
--0--------------------0-----------------|


  B7                                     G#m7(-5)/ D                C#7
  |--3--|  |--3--|  |--3--|  |--3--|     |-------3------|  |--3--|
  E  E  E  E  E  E  E  E  E  E  E  E     E           E  E  E  E  E  H
-----------0--------2--------7--------|--5-----------------4--------9--------|
--4-----------0--------0--------0-----|--------------0--------0-----6--------|
-----2-----------2--------2--------4--|-----------------4--------4--8--------|
--------4-----------------------------|--------------------------------------|
--2-----------------2--------6--------|--5-----------------------------------|
--------------------------------------|-----------------------------9--------|


   F#m7                  B7
   |---3---|   |---3--|  |--3--|  |--3--|
   E   E   E   E  E   E  E  E  E  E  E  E
-------------------------------------------|
--12----------10---------9--------7--------|
-------9----------9---------8--------8-----|
----------11---------11--------7--------7--|
---9---------------------------------------|
-------------------------7-----------------|


  G#m7                  C#7
  |---3---|  |--3--|    |--3--|  |--3--|
  E    E  E  E  E  E    E  E  E  E  E  E
----------------------4g5--------4--------|
--4----------5----------------6-----6-----|
-------4--------4----------4-----------4--|
----------4--------4----------------------|
------------------------4-----------------|
--4---------------------------------------|


  F#m                B7sus4
  |---3--|  |--3--|  |----3----|  |--3-|
  E   E  E  E  E  E  E      E  E  Q    E
------------4--------2------------0-------|
--2------------2------------2----------0--|
------2-----------2------------2----------|
---------2--------------------------------|
---------------------2--------------------|
--2---------------------------------------|


  Emaj7                A6/E
  |----3---|  |--3--|  |---3---|  |---3--|
  E     E  E  E  E  E  E    E  E  Q      E
--------------0-----------------------------|
--9--------------9-----7----------7S----10--|
--------8-----------8----------6------------|
-----------9----------------7---------------|
--------------------------------------------|
--0--------------------0--------------------|


  Emaj7
  |----3---|  |--3--|  |---3---|   |---3--|
  E     E  E  E  E  E  E    E  E   E   E  E
--------------0----------------9--12--11--9--|
--9--------------9-----7S--10----------------|
-----------8--------8------------------------|
--------9------------------------------------|
---------------------------------------------|
--0--------------------0---------------------|


  Emaj7                A6/E
  |----3---|  |--3--|  |---3---|  |--3--|
  E     E  E  E  E  E  E    E  E  Q     E
--7-------------------------------0--------|
--------------0--------7---------------10--|
-----------8-----8-------------6-----------|
--------9-----------9-------7--------------|
-------------------------------------------|
--0--------------------0-------------------|


  Emaj7                A6/E
  |----3---|  |--3--|  |---3---|
  E     E  E  E  E  E  E    E  E  Q
--------------0------------------------|
--9--------------9-----7----------7----|
-----------8--------8----------6-------|
--------9-------------------7----------|
---------------------------------------|
--0--------------------0---------------|


  Emaj7                A6/E
                                              ^
  |----3---|  |--3--|  |---3---|  |--3--|
  E     E  E  E  E  E  E    E  E  E  E  E     W
--------------0-------------------0--------|-------------------||
--9--------------9-----7----------------7--|--9----------------||
-----------8--------8----------6-----------|--8----------------||
--------9-------------------7--------7-----|--9----------------||
-------------------------------------------|-------------------||
--0--------------------0-------------------|--0----------------||


Duration Legend
---------------
W - whole
H - half
Q - quarter
E - 8th
S - 16th
T - 32nd
X - 64th
. - note dotted
|-n-|  - n-tuplets


Tablature Legend
----------------
L - tied note
x - dead note
g - grace note
(n) - ghost note
> - accentuded note
NH - natural harmonic
AH - artificial harmonic
TH - tapped harmonic
SH - semi harmonic
PH - pitch harmonic
h - hammer on
p - pull off
b - bend
br - bendRelease
pb - preBend
pbr - preBendRelease
brb - bendReleaseBend
\n/ - tremolo bar dip
\n - tremolo bar dive
-/n - tremolo bar Release up
/n\ - tremolo bar inverted dip
/n - tremolo bar return
-\n - tremolo bar Release down
S - shift slide
s - legato slide
/ -  slide into from below or out of upwards
\ -  slide into from above or out of downwards
~ - vibrato
W - wide vibrato
tr - trill
TP - tremolo picking
T - tapping
S - slap
P - pop
< - fade in
^ - brush up
v - brush down
Добавлено: 09.05.2012
Другие материалы по этой песне:

Страница создана 14.04.2012
http://primanota.ru/kotaro-oshio/dear-chords.htm
Привет, Гость.
Предлагаем пройти революционный курс по гитаре.
Подарок от PrimaNota.Ru, забирай!