PrimaNota.ru - самый крупный в мире бесплатный архив песенных текстов, аккордов, табулатур и нот


Kosmos Express - Eleanor 123 - таба, видео

Регистрация Запомнить меня
Войти через:  Facebook Google Twitter Vk Yandex Mail.ru

Kosmos Express - Eleanor 123 - таба, видео

Печатать
Просмотров: 79
		   Eleanor 123
Kosmos Express
CD: Now
C  1997 bridge building music
TAB: Alan Wages  saw97a@timon.acu.edu

This song has tres gutiars going. "The song with no words"

Guitar  1  and bass
e|---------------------------------------------------------------|
b|---------------------------------------------------------------|
g|---------------------------------------------------------------|
d|---------------------------------------------------------------|
a|-------8-8-7-7--------8-8-7-7---------------10-7--------8-8-7-7|
e|8-8--8---------8-8--8----------5-5--5--8-10------8-8--8--------|
                                                          *
(You may want to play this in octaves.)

Guitar  2:

e|----------------------|
b|----------------------|
g|----------------------|
d|-7----5---------------|
a|--------7--5--7-------| 
e|-----------------8-8--|


Guitar  3: begins after guitars 1 & 2 play once (at the star)

e|---------------|
b|---------------|
g|-9--12--14--12-|
d|---------------|
a|-7--10--12--10-|
e|---------------|

End chords:
    C7    Csus2
  |---|   |---|
  |---|   |---|
  |-9-|   |---|
  |-8-|   |-12|
  |-10|   |-10|
  |-8-|   |-8-|
     
Добавлено: 17.08.2013
Другие материалы по этой песне:
  • Аккорды и текст

Страница создана 17.08.2013
http://primanota.ru/kosmos-express/eleanor-123-chords.htm
Привет, Гость.
Предлагаем пройти революционный курс по гитаре.
Подарок от PrimaNota.Ru, забирай!