PrimaNota.ru - самый крупный в мире бесплатный архив песенных текстов, аккордов, табулатур и нот


Коrsика - Пустой Перрон - аккорды и текст, видео

Регистрация Запомнить меня
Войти через:  Facebook Google Twitter Vk Yandex Mail.ru

Коrsика - Пустой Перрон - аккорды и текст, видео

Печатать
Просмотров: 246
Пустой Перрон
Коrsика
Am Asus4 Am Asus2 Am
Ветер в пыли перрон пустой,
Am Asus4 Am Asus2
И ты один на годы вперед
F G Asus2
Догорел войны огонь

Молча ты смотришь на закат,
Как же чертовски могут устать
Даже крылья за спиной...

Припев:
Am G F
Ты - не проиграл
E Am
Небо удержал
G E
На плечах своих...
G E Am
Ты - не победил...
G Am
И лететь нет сил...
G E
И дышать нет сил.

---------0-------------------------------------------------0----------------------------
-------1-----1----------3------1-----0-1-------------1------1--------3------1-------0-1-
-----2----------2---------2------2------------------2------------2-------2------2-------
------------------------------2------2----------------------------------------2------2--
0---------------------------------------------------0-----------------------------------
----------------------------------------------------------------------------------------

------1-----------------3---------------------------0-
----1----1------------3-----3-------------------1-----
--2----------1-------4---------3--------------2-------
------------------------------------------------------
------------------------------------------0-----------
1-------------------3---------------------------------
Добавлено: 17.02.2016
Другие материалы по этой песне:
  • Аккорды и текст

Страница создана 17.02.2016
http://primanota.ru/korsika-2/pustoi-perron-chords.htm
Привет, Гость.
Предлагаем пройти революционный курс по гитаре.
Подарок от PrimaNota.Ru, забирай!