PrimaNota.ru - самый крупный в мире бесплатный архив песенных текстов, аккордов, табулатур и нот


Korpiklaani - Tervaskanto - текст песни, таба, видео

Регистрация Запомнить меня
Войти через:  Facebook Google Twitter Vk Yandex Mail.ru

Korpiklaani - Tervaskanto - текст песни, таба, видео

Печатать
Просмотров: 188
Авторы музыки: Jonne Järvelä
Авторы текста: Virva Holtiton
Korpiklaani-Tervaskanto

Intro:
|------------------|-----------------|-----------------|-----------------|
|------------------|-----------------|-----------------|-----------------|
|--------------3---|-5555-55-3-------|-------------3---|-5555-55-3-------|
|--5555-55-3-5-1-5-|-3333-33-1-5-3-5-|-5555-55-3-5-1-5-|-3333-33-1-5-3---|
|--3333-33-1-3---3-|-----------3-1-3-|-3333-33-1-3---3-|-----------3-1---|
|------------------|-----------------|-----------------|---------------13|
                                                                       ..
|-----------|
|-----------|
|-5----5----|
|-5-55-5-55-|
|-3-33-3-33-|
|-----------|                                                                     
    ..   ..

Main-Riff:
3x
|---------------------|-------------------|
|---------------------|-------------------|
|-5----5----3----3----|-------------------|
|-5-55-5-55-3-33-3-33-|--5----3-----------|
|-3-33-3-33-1-11-1-11-|--5-55-3---3---3---|
|---------------------|--3-33-1-13--13--13|
    ..   ..   ..   ..      ..   ..  ..  ..

Main-Riff (Variation at the beginning of the Verse):
1x
|---------------------|------------| 
|---------------------|------------|
|-5----5----3----3----|------------|
|-5-55-5-55-3-33-3-33-|--5----3----|
|-3-33-3-33-1-11-1-11-|--5-55-3----|
|---------------------|--3-33-1----|
    ..   ..   ..   ..      ..   

Verse:
2x
|-----------------|-----------------|
|-----------------|-----------------|
|-5-5-----5-5-----|-5-5-------3-----|
|-5-5-5-5-5-5-5-5-|-3-3-5-5-5-1-5-5-|
|-3-3-5-5-3-3-5-5-|-----3-3-3---3-3-|
|-----3-3-----3-3-|-----------------|
1x
|-----------------|----------------|
|-----------------|----------------|
|-----------------|5555------33----|
|-5555----5555----|3333555555115555|
|-3333555533335555|----333333--3333|
|-----3333----3333|----------------|
  ................ ................
1x
|-----------------|-----------------|--------|
|-----------------|-----------------|--------|
|-5-5-----5-5-----|-5-5-------3-----|--------|
|-5-5-5-5-5-5-5-5-|-3-3-5-5-5-1-5-5-|--------|
|-3-3-5-5-3-3-5-5-|-----3-3-3---3-3-|----3---|
|-----3-3-----3-3-|-----------------|--13--13|
                                       ..  ..
Chorus: play the same as "Main-Riff"

Tab by Julianoz



Добавлено: 18.07.2012
Другие материалы по этой песне:
  • Аккорды и текст

Страница создана 18.07.2012
http://primanota.ru/korpiklaani/tervaskanto-chords.htm
Привет, Гость.
Предлагаем пройти революционный курс по гитаре.
Подарок от PrimaNota.Ru, забирай!