PrimaNota.ru - самый крупный в мире бесплатный архив песенных текстов, аккордов, табулатур и нот


Korpiklaani - Rise - текст песни, таба, видео

Регистрация Запомнить меня
Войти через:  Facebook Google Twitter Vk Yandex Mail.ru

Korpiklaani - Rise - текст песни, таба, видео

Печатать
Просмотров: 258
Авторы музыки: Jonne Järvelä
Авторы текста: Jonne Järvelä, Virva Holtiton, Jarkko Aaltonen
INFO:

==>ALL OVER THE SONG, IN LOW E STRING, A STRING - SINGLE NOTES ARE PALM MUTED<==

h - Hammer on
p - pull off

Intro:
E------------------------------------------------------|
B------------------------------------------------------|
G-------------------2-2----------------------      X 4-|
D-------------------2-2-------------------2-2----------|
A-000-222-333-555-2-0-0-------------------2-2----------|
E-----------------------000-222-333-555-2-0-0----------|


E--------------10-101010-8-7-----------------------------------|
B------7-8-7--7-------------10-8-7-8-888-10-8-7-7-8-888-7------|
G-9-999------9---------------------------------9---------9-7-7-|
D-----------------------------------------------------------9--|    X 4
A--------------------------------------------------------------|
E--------------------------------------------------------------|

VERSE:

E--------------------------------------------------------|
B--------------------------------------------------------|
G--------------------------------------------------------|
D-2-2-----------2-2-----------2-2-------------2-2-0------|
A-2-2-----------2-2-----------2-2-------------2-2-0------|
E-0-0-0-0-3-0-3-0-0-0-0-3-0-3-0-0-0-0-3-0-3-0-0-0--------|

CHORUS:

E-----------------------------------------------------------------------|
B-----------------------------------------------------------------------|
G-------------------7---------------------------------------------------|
D-2-----------------7---------------------5------------------5----------|
A-2-----------------5-5555555555555555555-5------------------5----------|
E-0-000000000000000-----------------------3-3333333333333333-3-33333333-|

E--------7-7-------7-7-8-7-5-8-7-5-8-7-5---------------------7-7-------7-7-8-7-5-8-7-5-8------|
B-5-5h7h8---5-5h7h8---------5-----5-----5-7h8p7-5h7p5-4-4h5h7---4-4h5h7--------5-----5-4-5-7--|
G---------------------------------------------------------------------------------------------|
D---------------------------------------------------------------------------------------------|
A---------------------------------------------------------------------------------------------|
E---------------------------------------------------------------------------------------------|

E--------------10-101010-8-7-----------------------------------|
B------7-8-7--7-------------10-8-7-8-888-10-8-7-7-8-888-7------|
G-9-999------9---------------------------------9---------9-7-7-|
D-----------------------------------------------------------9--|    X 4
A--------------------------------------------------------------|
E--------------------------------------------------------------|

VERSE:

E--------------------------------------------------------|
B--------------------------------------------------------|
G--------------------------------------------------------|
D-2-2-----------2-2-----------2-2-------------2-2-0------|
A-2-2-----------2-2-----------2-2-------------2-2-0------|
E-0-0-0-0-3-0-3-0-0-0-0-3-0-3-0-0-0-0-3-0-3-0-0-0--------|

CHORUS:

E-----------------------------------------------------------------------|
B-----------------------------------------------------------------------|
G-------------------7---------------------------------------------------|
D-2-----------------7---------------------5------------------5----------|
A-2-----------------5-5555555555555555555-5------------------5----------|
E-0-000000000000000-----------------------3-3333333333333333-3-33333333-|

E--------7-7-------7-7-8-7-5-8-7-5-8-7-5---------------------7-7-------7-7-8-7-5-8-7-5-8------|
B-5-5h7h8---5-5h7h8---------5-----5-----5-7h8p7-5h7p5-4-4h5h7---4-4h5h7--------5-----5-4-5-7--|
G---------------------------------------------------------------------------------------------|
D---------------------------------------------------------------------------------------------|
A---------------------------------------------------------------------------------------------|
E---------------------------------------------------------------------------------------------|

E--------------10-101010-8-7-----------------------------------|
B------7-8-7--7-------------10-8-7-8-888-10-8-7-7-8-888-7------|
G-9-999------9---------------------------------9---------9-7-7-|
D-----------------------------------------------------------9--|    X 4
A--------------------------------------------------------------|
E--------------------------------------------------------------|

E---------------------------------------------------------------------|
B-7-7777777777-9-9999999999-10-10101010101010-12121212-101010-999-777-|
G---------------------------------------------------------------------|
D---------------------------------------------------------------------|  X2
A---------------------------------------------------------------------|
E---------------------------------------------------------------------|

E----------------------------------------------------------------------|
B-14141414141414-121212121212-1010101010101010-12121212-101010-999-777-|
G----------------------------------------------------------------------|
D----------------------------------------------------------------------|
A----------------------------------------------------------------------|
E----------------------------------------------------------------------|

E---------------------------------------------------------------------|
B-7-7777777777-9-9999999999-10-10101010101010-12121212-101010-999-777-|
G---------------------------------------------------------------------|
D---------------------------------------------------------------------|
A---------------------------------------------------------------------|
E---------------------------------------------------------------------|

OUTRO:
  P.M P.M P.M P.M     P.M P.M P.M P.M
E--------------------------------------------------|
B--------------------------------------------------|
G-----------------4-4------------------------------|
D------------222--4-4-----------------4-4----------|       X4
A-222-444-555---4-2-2------------222--4-4----------|
E---------------------222-444-555---4-2-2----------|

Enjoy, Eldad.
Добавлено: 01.04.2012
Другие материалы по этой песне:

Страница создана 01.04.2012
http://primanota.ru/korpiklaani/rise-chords.htm
Привет, Гость.
Предлагаем пройти революционный курс по гитаре.
Подарок от PrimaNota.Ru, забирай!