PrimaNota.ru - самый крупный в мире бесплатный архив песенных текстов, аккордов, табулатур и нот


Korpiklaani - Pine Woods - таба, видео

Регистрация Запомнить меня
Войти через:  Facebook Google Twitter Vk Yandex Mail.ru

Korpiklaani - Pine Woods - таба, видео

Печатать
Просмотров: 219
Уроки эстрадного вокала в Санкт-Петербурге
Авторы музыки: Toni "Honka" Honkanen

INFO:
P.M - Palm Mute
b-Bend
Tremolo picking is only at the last verses of the solo, read above the verses


Flute intro:
              P.M             P.M
E------------------------------------------------------------------|
B------------------------------------------------------------------|
G------------------------------------------------------------------|
D-7----5-5-7--------3-5--------------------------------------------|
A-5----3-3-5--1111--1-3--3-5--22-----------------------------------|
E------------------------1-3--00-----------------------------------|
              P.M             P.M
E------------------------------------------------------------------|
B------------------------------------------------------------------|
G------------------------------------------------------------------|
D-7----5-5-7--------3-5--------------------------------------------|
A-5----3-3-5--1111--1-3--3-5--22-----------------------------------|
E------------------------1-3--00-----------------------------------|
              P.M             P.M
E------------------------------------------------------------------|
B------------------------------------------------------------------|
G------------------------------------------------------------------|
D-7----5-5-7--------3-5--------------------------------------------|
A-5----3-3-5--1111--1-3--3-5--22-----------------------------------|
E------------------------1-3--00-----------------------------------|
              P.M             P.M
E------------------------------------------------------------------|
B------------------------------------------------------------------|
G------------------------------------------------------------------|
D-7----5-5-7--------3-5--------------------------------------------|
A-5----3-3-5--1111--1-3--3-5--22-----------------------------------|
E------------------------1-3--00-----------------------------------|

E-----------------------5---------------------------|
B---------5-6-8-5----5-6-8-5----------5-6-8-5-------|
G-7-7-5-7--------7--7-------5-7--7-5-7-------7--5-7-|
D---------------------------------------------------|
A---------------------------------------------------|
E---------------------------------------------------|

E-----------------------5---------------------------|
B---------5-6-8-5----5-6-8-5----------5-6-8-5-------|
G-7-7-5-7--------7--7-------5-7--7-5-7-------7--5-7-|
D---------------------------------------------------|
A---------------------------------------------------|
E---------------------------------------------------|

E-----------------------5---------------------------|
B---------5-6-8-5----5-6-8-5----------5-6-8-5-------|
G-7-7-5-7--------7--7-------5-7--7-5-7-------7--5-7-|
D---------------------------------------------------|
A---------------------------------------------------|
E---------------------------------------------------|

E-----------------------5---------------------------|
B---------5-6-8-5----5-6-8-5----------5-6-8-5-------|
G-7-7-5-7--------7--7-------5-7--7-5-7-------7--5-7-|
D---------------------------------------------------|
A---------------------------------------------------|
E---------------------------------------------------|

FLUTE
              P.M             P.M
E------------------------------------------------------------------|
B------------------------------------------------------------------|
G------------------------------------------------------------------|
D-7----5-5-7--------3-5--------------------------------------------|
A-5----3-3-5--1111--1-3--3-5--22-----------------------------------|
E------------------------1-3--00-----------------------------------|

                P.M             P.M
E------------------------------------------------------------------|
B------------------------------------------------------------------|
G------------------------------------------------------------------|
D-7----5-5-7--------3-5--------------------------------------------|
A-5----3-3-5--1111--1-3--3-5--22-----------------------------------|
E------------------------1-3--00-----------------------------------|

              P.M             P.M
E------------------------------------------------------------------|
B------------------------------------------------------------------|
G------------------------------------------------------------------|
D-7----5-5-7--------3-5--------------------------------------------|
A-5----3-3-5--1111--1-3--3-5--22-----------------------------------|
E------------------------1-3--00-----------------------------------|

              P.M             P.M
E------------------------------------------------------------------|
B------------------------------------------------------------------|
G------------------------------------------------------------------|
D-7----5-5-7--------3-5--------------------------------------------|
A-5----3-3-5--1111--1-3--3-5--22-----------------------------------|
E------------------------1-3--00-----------------------------------|

E-----------------------5---------------------------|
B---------5-6-8-5----5-6-8-5----------5-6-8-5-------|
G-7-7-5-7--------7--7-------5-7--7-5-7-------7--5-7-|
D---------------------------------------------------|
A---------------------------------------------------|
E---------------------------------------------------|

E-----------------------5---------------------------|
B---------5-6-8-5----5-6-8-5----------5-6-8-5-------|
G-7-7-5-7--------7--7-------5-7--7-5-7-------7--5-7-|
D---------------------------------------------------|
A---------------------------------------------------|
E---------------------------------------------------|

E-----------------------5---------------------------|
B---------5-6-8-5----5-6-8-5----------5-6-8-5-------|
G-7-7-5-7--------7--7-------5-7--7-5-7-------7--5-7-|
D---------------------------------------------------|
A---------------------------------------------------|
E---------------------------------------------------|

E-----------------------5---------------------------|
B---------5-6-8-5----5-6-8-5----------5-6-8-5-------|
G-7-7-5-7--------7--7-------5-7--7-5-7-------7--5-7-|
D---------------------------------------------------|
A---------------------------------------------------|
E---------------------------------------------------|

DRUMS INTRELUDE

Then:

PALM MUTE ALL SINGLE NOTES
|-------------------------------------------------------------------|
|-------------------------------------------------------------------|
|-------------------------------------------------------------------|
|-7-----7-----7-8-----8-----8-7-----7-----7-3-----3-----3-----------|
|-5-555-5-555-5-6-666-6-666-6-5-555-5-555-5-1-111-1-111-1-----------|
|-------------------------------------------------------------------|

|-------------------------------------------------------------------|
|-------------------------------------------------------------------|
|-------------------------------------------------------------------|
|-7-----7-----7-8-----8-----8-10-----10-----10-10-----10-----10-----|
|-5-555-5-555-5-6-666-6-666-6--8-888--8-888--8--8-888--8-888--8-----|
|-------------------------------------------------------------------|

THEN SOLO:

E-------------------------------------------------------------|
B---------13-15--13-15-13--------------------13-15--13-15--18-|
G--12---15---------------15-14--15-14--12--15-----------------|
D------------------------------------15-----------------------|
A-------------------------------------------------------------|
E-------------------------------------------------------------|

E--------13-13b-----1312---------------------------------------------------|
B------15-15-----------1513--13--------------------------------------------|
G-12-15--------------------15--151412--12-14-17-14-14-17-114-14-17-14-14-14|
D--------------------------------------------------------------------------|
A--------------------------------------------------------------------------|
E--------------------------------------------------------------------------|

FROM HERE ON IT'S ONLY TREMOLO PICKING:

E----------------------------------------------------------------------|
B----------------------------------------------------------------------|
G-17-14-14-17-14-14-14-17-14-14-14--17-14-14-17-14-14-14--14-15-17-17b-|
D----------------------------------------------------------------------|
A----------------------------------------------------------------------|
E----------------------------------------------------------------------|

E------------------------------------------------------------------------|
B-18-17-15-15-18-17-15-15-18-17-15-15-18-17-15-15-18-17-15-15-18-17-15-15|
G------------------------------------------------------------------------|
D------------------------------------------------------------------------|
A------------------------------------------------------------------------|
E------------------------------------------------------------------------|

E-----------------------------------------------------------------------17b|
B-18-15-15-18-15-15-18-15-18-15-15-18-15-15-18-15-18-15b15b15b-18b18b18b---|
G--------------------------------------------------------------------------|
D--------------------------------------------------------------------------|
A--------------------------------------------------------------------------|
E--------------------------------------------------------------------------|

The bend keeps through this verse

E-----------------------5---------------------------|
B---------5-6-8-5----5-6-8-5----------5-6-8-5-------|
G-7-7-5-7--------7--7-------5-7--7-5-7-------7--5-7-|
D---------------------------------------------------|
A---------------------------------------------------|
E---------------------------------------------------|

E-----------------------5---------------------------|
B---------5-6-8-5----5-6-8-5----------5-6-8-5-------|
G-7-7-5-7--------7--7-------5-7--7-5-7-------7--5-7-|
D---------------------------------------------------|
A---------------------------------------------------|
E---------------------------------------------------|

E-----------------------5---------------------------|
B---------5-6-8-5----5-6-8-5----------5-6-8-5-------|
G-7-7-5-7--------7--7-------5-7--7-5-7-------7--5-7-|
D---------------------------------------------------|
A---------------------------------------------------|
E---------------------------------------------------|

E-----------------------5---------------------------|
B---------5-6-8-5----5-6-8-5----------5-6-8-5-------|
G-7-7-5-7--------7--7-------5-7--7-5-7-------7--5-7-|
D---------------------------------------------------|
A---------------------------------------------------|
E---------------------------------------------------|

              P.M             P.M
E------------------------------------------------------------------|
B------------------------------------------------------------------|
G------------------------------------------------------------------|
D-7----5-5-7--------3-5--------------------------------------------|
A-5----3-3-5--1111--1-3--3-5--22-----------------------------------|
E------------------------1-3--00-----------------------------------|

              P.M             P.M
E------------------------------------------------------------------|
B------------------------------------------------------------------|
G------------------------------------------------------------------|
D-7----5-5-7--------3-5--------------------------------------------|
A-5----3-3-5--1111--1-3--3-5--22-----------------------------------|
E------------------------1-3--00-----------------------------------|

              P.M             P.M
E------------------------------------------------------------------|
B------------------------------------------------------------------|
G------------------------------------------------------------------|
D-7----5-5-7--------3-5--------------------------------------------|
A-5----3-3-5--1111--1-3--3-5--22-----------------------------------|
E------------------------1-3--00-----------------------------------|

              P.M             P.M
E------------------------------------------------------------------|
B------------------------------------------------------------------|
G------------------------------------------------------------------|
D-7----5-5-7--------3-5--------------------------------------------|
A-5----3-3-5--1111--1-3--3-5--222----------------------------------|
E------------------------1-3--000----------------------------------|


Enjoy! Eldad
Добавлено: 22.05.2012
Другие материалы по этой песне:

Страница создана 16.03.2012
http://primanota.ru/korpiklaani/pine-woods-chords.htm
Привет, Гость.
Предлагаем пройти революционный курс по гитаре.
Подарок от PrimaNota.Ru, забирай!