PrimaNota.ru - самый крупный в мире бесплатный архив песенных текстов, аккордов, табулатур и нот


Korn - What We Do - текст песни, таба, видео

Регистрация Запомнить меня
Войти через:  Facebook Google Twitter Vk Yandex Mail.ru

Korn - What We Do - текст песни, таба, видео

Печатать
Просмотров: 316
Уроки эстрадного вокала в Санкт-Петербурге
-------------------------------------------------------------------------------
                             WHAT WE DO - Korn
-------------------------------------------------------------------------------
Tabbed by: FRr3AkOnALEaSh
E-mail: smokin_05@hotmail.com

Tuning: A Standard (7 String) A D G C F a d

.   - Palm Mute
~   - Hold Note
\   - Slide-up
^   - Bend Up
~_~ - Harmonics


~ CHECK THE BOTTOM OF THE PAGE FOR STRUCTURE ~

Riff 1 (Intro)
d|------|
a|------|
F|------|
C|--7~--|
G|--6~--|
D|--5~--|
A|------|

Riff 2 (Intro/Pre-Verse)
d|-------------------------|
a|-------------------------|
F|-------------------------|
C|-------------------------|
G|-------------------------|
D|-------------------------|
A|--2--25--23--24--23--33--|

Riff 3 (Intro)
d|-------------------------------|Variation of Riff 2
a|-------------------------------|played at 0:23 listen
F|-------------------------------|closely.
C|-------------------------------|
G|-------------------------------|Played Fast.
D|-------------------------------|
A|--2--2--53--232--2--5323~--33--|

Riff 4 (Intro) Guitar 2
d|--------|
a|--------|
F|--------|
C|--7~7~--|
G|--6~6~--|
D|--5~5~--|
A|--------|

Riff 5 (Verse)
d|------------------|------------------|
a|------------------|------------------|
F|------------------|------------------|
C|--44444444---4----|--55555555---5----|
G|------------------|------------------|
D|------------------|------------------|
A|-----------2---2--|-----------2---2--|

Riff 6 (Verse)
d|------------------|------------------|
a|------------------|------------------|
F|------------------|------------------|
C|--44444444---4----|--55555555--------|
G|------------------|------------------|
D|------------------|-----------4~-5~--|
A|-----------2---2--|-----------2~-3~--|

Riff 7 (Chorus) Guitar 1
d|------|------|------|------|    |------|------|------|------|
a|------|------|------|------|    |------|------|------|------|
F|------|------|------|------|    |------|------|------|------|
C|--6~--|--4~--|--7~--|--6~--|    |------|------|------|------|
G|--4~--|--2~--|--5~--|--4~--| or |--4~--|--2~--|--5~--|--4~--|
D|------|------|------|------|    |--4~--|--2~--|--5~--|--4~--|
A|------|------|------|------|    |--2~--|--0~--|--3~--|--2~--| \
                                                                 |PLAYED
Riff 8 (Chorus) Guitar 2                                         |TOGETHER
d|-------|-------|-------|--9~-----------| _____________________/
a|-------|-------|-------|----12~10~-----|                        
F|-------|-------|--11~--|---------------|
C|--11~--|--12~--|-------|----------12~--|
G|-------|-------|-------|---------------|
D|-------|-------|-------|---------------|
A|-------|-------|-------|---------------|

Riff 9 (Chorus) Guitar 1
d|------|------|------|------|------|    |------|------|------|------|------|
a|------|------|------|------|------|    |------|------|------|------|------|
F|------|------|------|------|------|    |------|------|------|------|------|
C|--6~--|--4~--|--7~--|--6~--|--7~--|    |------|------|------|------|------|
G|--4~--|--2~--|--5~--|--4~--|--5~--| or |--4~--|--2~--|--5~--|--4~--|--5~--|
D|------|------|------|------|------|    |--4~--|--2~--|--5~--|--4~--|--5~--|
A|------|------|------|------|------|    |--2~--|--0~--|--3~--|--2~--|--3~--| \
                                                                               |PLAYED
Riff 10 (Chorus) Guitar 2                                                      |TOGETHER
d|-------|-------|-----------|--9~--------------| ____________________________/
a|-------|-------|------10~--|----12~10~12~10~--|
F|-------|-------|--11~------|------------------|
C|-------|-------|-----------|------------------|
G|--11~--|--12~--|-----------|------------------|
D|-------|-------|-----------|------------------|
A|-------|-------|-----------|------------------|

Riff 11 (Bridge)
d|---------------|
a|---------------|
F|---------------|
C|--6~-----------|
G|--4~-7~-6~-----|
D|-----5~-4~-7~--|
A|-----------5~--|

Riff 12 (Bridge)
d|-------|
a|-------|Bend up first then
F|-------|slide down.
C|-------|
G|--^----|
D|--7\6--|
A|--5\4--|

Riff 13 (Bridge)
d|---------|---------|---------|---------|
a|---------|---------|---------|---------|
F|---------|---------|---------|---------|
C|---------|---------|--12~----|--12~----|
G|--11~----|--11~----|--11~----|--11~----|
D|---9~----|---9~----|---9~----|---9~----|
A|-----{x4}|-----{x4}|-----{x4}|-----{x4}|

Riff 14 (Bridge)
d|---------|----------------|   |---------|----------------|
a|---------|----------------|   |---------|----------------|
F|---------|----------------|   |---------|----------------|
C|---------|-------~11~-----|   |--12~----|-------~12~-----|
G|--11~----|----11.----11.--|   |--11~----|----11.----11.--|
D|---9~----|--9.------------|   |---9~----|--9.------------|
A|---------|----------------|x2 |---------|----------------|x2

Riff 15 (Bridge/Pre-Chorus)
d|-------|-------|
a|-------|-------|
F|-------|-------|
C|--11~--|--11~--|
G|---8~--|---7~--|
D|---9~--|---9~--|
A|-------|-------|

Riff 16 (Outro)
d|---------------|------|
a|---------------|------|
F|---------------|------|
C|--6~-----------|--2~--| <
G|--4~-7~-6~-----|------|  \ FINGER
D|-----5~-4~-7~--|------|  / PLUCK
A|-----------5~--|--2~--| <

----------------------------------------------------------

STRUCTURE:

0:00 - 0:03 = Riff 1
0:06 - 0:22 = Riff 2
0:23 - 0:31 = Riff 3 & 4
0:31 - 0:53 = Riff 5
0:53 - 0:57 = Riff 6
0:57 - 1:06 = Riff 7 & 8
1:06 - 1:16 = Riff 9 & 10
1:16 - 1:23 = Riff 2
1:23 - 1:44 = Riff 5
1:44 - 1:48 = Riff 6
1:48 - 1:57 = Riff 7 & 8
1:57 - 2:03 = Riff 9 & 10
2:03 - 2:06 = Riff 11
2:06 - 2:31 = Riff 12
2:31 - 2:49 = Riff 13
2:49 - 3:05 = Riff 14
3:06 - 3:10 = Riff 15
3:10 - 3:18 = Riff 2
3:18 - 3:27 = Riff 7 & 8
3:27 - 3:35 = Riff 9 & 10
3:35 - 3:44 = Riff 7 & 8
3:44 - 3:51 = Riff 9 & 10
3:51 - 3:56 = Riff 15
3:56 - END  = Riff 16

----------------------------------------------------------

If you believe this tab is accurate, don't forget to leave
a good rating (It helps me out a lot) leave any questions
or corrections in the comments below. Check out my profile
for more from the Paradigm Shift. Enjoy =)
Добавлено: 27.10.2013
Другие материалы по этой песне:

Страница создана 27.10.2013
http://primanota.ru/korn/what-we-do-chords.htm
Привет, Гость.
Предлагаем пройти революционный курс по гитаре.
Подарок от PrimaNota.Ru, забирай!