PrimaNota.ru - самый крупный в мире бесплатный архив песенных текстов, аккордов, табулатур и нот


Korn - Wake Up Hate (album) - бас-таба, видео

Регистрация Запомнить меня
Войти через:  Facebook Google Twitter Vk Yandex Mail.ru

Korn - Wake Up Hate (album) - бас-таба, видео

Печатать
Просмотров: 192
Уроки эстрадного вокала в Санкт-Петербурге
0:00 à 0:39

G|---------------------------------------------------------|
D|---------------------------------------------------------|
A|0-10-11--0-10-11--0-10-11--0-10-11--0-13-13-13-----------|
E|---------------------------------------------------------| x12


0:52 à 1:31

G|---------------------------------------------------------|
D|---------------------------------------------------------|
A|---------------------------------------------------------|
E|5-6-6--5-6--5-6-6-6-5-6--5--5-6-6--5-6--5-6-6-6-5-6--5---| x2


G|---------------------------------------------------------|
D|---------------------------------------------------------|
A|0-10-11--0-10-11--0-10-11--0-10-11--0-13-13-13-----------|
E|---------------------------------------------------------| x8


1:44 à 2:23

G|---------------------------------------------------------|
D|---------------------------------------------------------|
A|---------------------------------------------------------|
E|5-6-6--5-6--5-6-6-6-5-6--5--5-6-6--5-6--5-6-6-6-5-6--5---| x2

G|---------------------------------------------------------|
D|---------------------------------------------------------|
A|5-6-6-5-6--3--2--5-6-6-5-6--6-3--3-2---------------------|
E|---------------------------------------------------------| x4


2:29 à 3:10

G|---------------------------------------------------------|
D|---------------------------------------------------------|
A|0-10-11--0-10-11--0-10-11--0-10-11--0-13-13-13-----------|
E|---------------------------------------------------------| x12
Добавлено: 06.07.2012
Другие материалы по этой песне:
  • Аккорды и текст

Страница создана 06.07.2012
http://primanota.ru/korn/wake-up-hate-album-chords.htm
Привет, Гость.
Предлагаем пройти революционный курс по гитаре.
Подарок от PrimaNota.Ru, забирай!