PrimaNota.ru - самый крупный в мире бесплатный архив песенных текстов, аккордов, табулатур и нот


Korn - Wake Up - аккорды и текст, таба, бас-таба, видео

Регистрация Запомнить меня
Войти через:  Facebook Google Twitter Vk Yandex Mail.ru

Korn - Wake Up - аккорды и текст, таба, бас-таба, видео

Печатать
Просмотров: 390
Wake Up
Korn
		   TUNING: A, D, G, C, F, A, D

Intro/Chorus:
D---------------------------------
A---------------------------------
F---------------------------------
C---------------------------------
G-----------------------------3-2-
D---------------3-------------3-2-
A-0-2-3-2-3-0-3---3-0-2-3-2-3-1-0-

Other Thing After The Above Riff:
D--------------------------------------------------
A--------------------------------------------------
F--------------------------------------------------
C--------------------------------------------------
G-9-10-9-10-9-10-9-10-9-4-9-10-9-10-9-10-9-10-9-13-
D--------------------------------------------------
A--------------------------------------------------

Bridge:
D---------------------
A-9-10-22--9-10-22-10-
F---------------------
C---------------------
G---------------------
D---------------------
A---------------------     
Добавлено: 25.06.2013
Другие материалы по этой песне:

Страница создана 01.04.2012
http://primanota.ru/korn/wake-up-chords.htm
Привет, Гость.
Предлагаем пройти революционный курс по гитаре.
Подарок от PrimaNota.Ru, забирай!