PrimaNota.ru - самый крупный в мире бесплатный архив песенных текстов, аккордов, табулатур и нот


Korn - Untitled (album) - таба, видео

Регистрация Запомнить меня
Войти через:  Facebook Google Twitter Vk Yandex Mail.ru

Korn - Untitled (album) - таба, видео

Печатать
Просмотров: 126
KoRn - Untitled

Tabbed by Elvisz (elvisz84@yahoo.com)
Tuning : 7 String Tuned Low to High (A D G C F a d)

Tracklist:
 1) Intro                  (done)
 2) Starting Over          (done)
 3) Bitch We Got A Problem (done)
 4) Evolution              (done)
 5) Hold On                (done)
 6) Kiss                   (done)
 7) Do What They Say       (done)
 8) Ever Be                (done)
 9) Love And Luxury        (done)
10) Innocent Bystander     (done)
11) Killing                (done)
12) Hushabye               (done)
13) I Will Protect You     (done)
14) Sing Sorrow            (done)
15) Overture Or Obituary   (missing)

As you can see one song is still not done from the album, i will update the tab when im
done with that songs too. Until then have fun with these tabs.

KoRn - Intro - Untitled

Tabbed by Elvisz (elvisz84@yahoo.com)
Tuning : 7 String Tuned Low to High (A D G C F a d)

Vocal: Jonathan Houseman Davis 'Hiv'
Guitar: James Randal Shaffer 'Munky'
Bass: Reginald Arvizu 'Fieldy'
Drums: Terry Bozzio

Keyboard:
d|-------------------------------------------------------|
a|-------------------------------------------------------|
F|-9~-8~-7~-6~-11~-10~-9~-8~-13~-12~-11~-10~-9~-8~-7~-6~-|
C|-------------------------------------------------------|
G|-------------------------------------------------------|
D|-------------------------------------------------------|
A|-------------------------------------------------------|

Guitar:
d|----------------------------------------------------------------|
a|----------------------------------------------------------------|
F|----------------------------------------------------------------|
C|----------------------------------------------------------------|
G|----------------------------------------------------------------|
D|-12/13\12\11/12\11\10/11\10\9~~-14/15\14\13/14\13\12/13\12\11~~-|
A|----------------------------------------------------------------|

d|--------------------------------------------------------------------|
a|--------------------------------------------------------------------|
F|--------------------------------------------------------------------|
C|--------------------------------------------------------------------|
G|--------------------------------------------------------------------|
D|-16/17\16\15/16\15\14/15\14\13/14\13\12/13\12\11/12\11\10/11\10\9~~-|
A|--------------------------------------------------------------------|

d|-----------------------------------------------------------------|
a|-----------------------------------------------------------------|
F|-----------------------------------------------------------------|
C|-14/15\14\13/14\13\12/13\12\11~~-16/17\16\15/16\15\14/15\14\13~~-|
G|-xxxxxxxxxxxxxxxxxxxxxxxxxxxxxxx-xxxxxxxxxxxxxxxxxxxxxxxxxxxxxxx-|
D|-12/13\12\11/12\11\10/11\10\ 9~~-14/15\14\13/14\13\12/13\12\11~~-|
A|-----------------------------------------------------------------|

d|---------------------------------------------------------------------|
a|---------------------------------------------------------------------|
F|---------------------------------------------------------------------|
C|-18/19\18\17/18\17\16/17\16\15/16\15\14/15\14\13/14\13\12/13\12\11~~-|
G|-xxxxxxxxxxxxxxxxxxxxxxxxxxxxxxxxxxxxxxxxxxxxxxxxxxxxxxxxxxxxxxxxxxx-|
D|-16/17\16\15/16\15\14/15\14\13/14\13\12/13\12\11/12\11\10/11\10\ 9~~-|
A|---------------------------------------------------------------------|

Guitar2:
d|-----------------------------------------------------------------|
a|-17/18\17\16/17\16\15/16\15\14~~-19/20\19\18/19\18\17/18\17\16~~-|
F|-----------------------------------------------------------------|
C|-----------------------------------------------------------------|
G|-----------------------------------------------------------------|
D|-----------------------------------------------------------------|
A|-----------------------------------------------------------------|

d|---------------------------------------------------------------------|
a|-21/22\21\20/21\20\19/20\19\18/19\18\17/18\17\16/17\16\15/16\15\14~~-|
F|---------------------------------------------------------------------|
C|---------------------------------------------------------------------|
G|---------------------------------------------------------------------|
D|---------------------------------------------------------------------|
A|---------------------------------------------------------------------|

KoRn - Starting Over - Untitled

Tabbed by Elvisz (elvisz84@yahoo.com)
Tuning : 7 String Tuned Low to High (A D G C F a d)

Vocal: Jonathan Houseman Davis 'Hiv'
Guitar: James Randal Shaffer 'Munky'
Bass: Reginald Arvizu 'Fieldy'
Drums: Terry Bozzio

Intro:
d|----------------------------------------------|
a|----------------------------------------------|
F|----------------------------------------------|
C|-16~~~~~~~~~~~16^(17)'16~~~~~~~~~~~~~~~~~~~~~-|	(guitar1)
G|----------------------------------------------|
D|----------------------------------------------|
A|----------------------------------------------|

d|-------------------------------------------|
a|-------------------------------------------|
F|-------------------------------------------|
C|-------------------------------------------|	(guitar2)
G|-------------------------------------------|
D|-------------------------------------------|
A|-0-0--0-00--0-0--0-00--0-3--3-33--3-1-1-11-|
   ~~~~~~~~~~~~~~~~~~~~~~~~~~~~~~~~~~~~~~~~~~~~~with wah

Pre-Chorus:
d|-------------------------------|
a|-------------------------------|
F|-------------------------------|
C|-------------------------------|
G|-------------------------------|
D|-2-2x--2-2x--3/5x--5\3x---3-3x-|
A|-0-0x--0-0x--1/3x--3\1x---1-1x-|
   . .   . .   . .   . .    . .   .palm mute

Chorus:
d|---------------------------------------------------|
a|---------------------------------------------------|
F|---------------------------------------------------|
C|-----99999999-----99999999-----99999999------------|	(guitar1)
G|---------------------------------------------------|
D|-2-2x--------22-2x---------2-2x---------5-5x--3-3x-|
A|-0-0x--------00-0x---------0-0x---------3-3x--1-1x-|
   . .         .. .          . .          . .   . .   palm mute

d|---------------------------------------------------------|
a|---------------------------------------------------------|
F|---------------------------------------------------------|
C|-----99999999-----99999999-----99999999------------------|	(guitar1)
G|---------------------------------------------------------|
D|32-2x--------22-2x---------2-2x---------5-5x----3-3x-----|
A|10-0x--------00-0x---------0-0x---------3-3x----1-1x-----|
  .. .         .. .          . .          . .     . .       palm mute

d|---------------------------------------------------------|
a|---------------------------------------------------------|
F|---------------------------------------------------------|
C|---------------------------------------------------------|	(guitar2)
G|--------------------------------------------<17>----<17>-|    ----<17>-|    |
G|------------------------------------------|
D|------------------------------------------|
A|------------------------------------------|

(guitar)
d|----------|
a|----------|
F|----------|
C|----------|
G|-7x-7x-8x-|
D|-7x-7x-8x-|
A|-5x-5X-6x-|

Pre-Chorus:
d|---------------------------------|
a|---------------------------------|
F|---------------------------------|
C|---------------------------------|
G|-877x---77-777-777-888-88-888-88-|
D|-877x---77-777-777-888-88-888-88-|
A|-655x---55-555-555-666-66-666-66-|
          .. ..  ..  ..  .. ..  ..  .palm mute

Fill1:
d|-------------------------------------------------|
a|-------------------------------------------------|
F|-------------------------------------------------|
C|-------------------------------------------------|
G|-------10-------10-------------10-------10-------|
D|----12-------12-------12----12-------12-------12-|
A|-11-------11-------11----10-------10-------10----|
   .. ..    .. ..    .. .. .. ..    .. ..    .. ..  .palm mute

d|-------------------------------------------|
a|-------------------------------------------|
F|-------------------------------------------|
C|-------------------------------------------|
G|------10------10-----------10------10------|
D|---11------11------11---10------10------10-|
A|-9-------9-------9----8-------8-------8----|
   . ..    . ..    . .. . ..    . ..    . ..  .palm mute

Chorus:
d|-------------------------------------------------------------------------|
a|-------------------------------------------------------------------------|
F|-------------------------------------------------------------------------|
C|-------------------------------------------------------------------------|	(guitar1)
G|-77777777--575-1010101010101010-575-1212121212121212-5~~~~-777777777-575-|
D|-77777777--575-1010101010101010-575-1212121212121212-5~~~~-777777777-575-|
A|-55555555--353- 8 8 8 8 8 8 8 8-353-1010101010101010-3~~~~-555555555-353-|

d|-------------------------------------------------------------------------|
a|-------------------------------------------------------------------------|
F|-------------------------------------------------------------------------|
C|-------------------------------------------------------------------------|	(guitar2)
G|-7910-7910-710-575-7910-7910-710-575-7910-7910-710-5~~~7910-7910-710-575-|
D|---------------575---------------575---------------5~~~--------------575-|
A|---------------353---------------575---------------5~~~--------------575-|

d|--------------------------------------------------|
a|--------------------------------------------------|
F|--------------------------------------------------|
C|-212121212121212119191919191919191717171717171717-|	(synth)
G|-xxxxxxxxxxxxxxxxxxxxxxxxxxxxxxxxxxxxxxxxxxxxxxxx-|
D|-191919191919191917171717171717171515151515151515-|
A|--------------------------------------------------|

Fill2:
d|------------------------------------------|
a|------------------------------------------|
F|-21~~-19~~--------------------------------|
C|-----------21~~-22~~-19~\\\\\\\\\\\\\\\\\-|
G|------------------------------------------|
D|------------------------------------------|
A|------------------------------------------|

Verse:(synth)
d|------------------------------------------|
a|------------------------------------------|
F|-21~--19~--------22~--21~--2119~-~~~------|
C|-----------21~------------------------21~>|
G|------------------------------------------|
D|------------------------------------------|
A|------------------------------------------|

(guitar)
d|----------|
a|----------|
F|----------|
C|----------|
G|-7x-7x-8x-|
D|-7x-7x-8x-|
A|-5x-5X-6x-|

Pre-Chorus:
d|---------------------------------|
a|---------------------------------|
F|---------------------------------|
C|---------------------------------|
G|-877x---77-777-777-888-88-888-88-|
D|-877x---77-777-777-888-88-888-88-|
A|-655x---55-555-555-666-66-666-66-|
          .. ..  ..  ..  .. ..  ..  .palm mute

Fill1:
d|-------------------------------------------------|
a|-------------------------------------------------|
F|-------------------------------------------------|
C|-------------------------------------------------|
G|-------10-------10-------------10-------10-------|
D|----12-------12-------12----12-------12-------12-|
A|-11-------11-------11----10-------10-------10----|
   .. ..    .. ..    .. .. .. ..    .. ..    .. ..  .palm mute

d|-------------------------------------------|
a|-------------------------------------------|
F|-------------------------------------------|
C|-------------------------------------------|
G|------10------10-----------10------10------|
D|---11------11------11---10------10------10-|
A|-9-------9-------9----8-------8-------8----|
   . ..    . ..    . .. . ..    . ..    . ..  .palm mute

Chorus:
d|-------------------------------------------------------------------------|
a|-------------------------------------------------------------------------|
F|-------------------------------------------------------------------------|
C|-------------------------------------------------------------------------|	(guitar1)
G|-77777777--575-1010101010101010-575-1212121212121212-5~~~~-777777777-575-|
D|-77777777--575-1010101010101010-575-1212121212121212-5~~~~-777777777-575-|
A|-55555555--353- 8 8 8 8 8 8 8 8-353-1010101010101010-3~~~~-555555555-353-|

d|-------------------------------------------------------------------------|
a|-------------------------------------------------------------------------|
F|-------------------------------------------------------------------------|
C|-------------------------------------------------------------------------|	(guitar2)
G|-7910-7910-710-575-7910-7910-710-575-7910-7910-710-5~~~7910-7910-710-575-|
D|---------------575---------------575---------------5~~~--------------575-|
A|---------------353---------------575---------------5~~~--------------575-|

d|--------------------------------------------------|
a|--------------------------------------------------|
F|--------------------------------------------------|
C|-212121212121212119191919191919191717171717171717-|	(synth)
G|-xxxxxxxxxxxxxxxxxxxxxxxxxxxxxxxxxxxxxxxxxxxxxxxx-|
D|-191919191919191917171717171717171515151515151515-|
A|--------------------------------------------------|

Bridge1:
d|-------------------------------------------------------------------------|
a|-------------------------------------------------------------------------|
F|-------------------------------------------------------------------------|
C|-1414141513-xxxxxxxx-1414141513-xxxxxxxx-1919191916-xxxxxxxxx-2121212116-|
G|-xxxxxxxxxx-xxxxxxxx-xxxxxxxxxx-xxxxxxxx-xxxxxxxxxx-xxxxxxxxx-xxxxxxxxxx-|
D|-1212121311-xxxxxxxx-1212121311-xxxxxxxx-1717171714-xxxxxxxxx-1919191914-|
A|-------------------------------------------------------------------------|

Bridge2:
d|-----------------------------------------------|
a|-----------------------------------------------|
F|-----------------------------------------------|
C|-----------------------------------------------|
G|-----------------------------------------------|
D|-----------------------------------------------|
A|-4/55-4/77---4/55-4/77---8\77-8\55---8\77-8\55-|
   . .. . ..   . .. . ..   . .. . ..   . .. . ..  .palm mute

Bridge3:
d|--------------------------------------------------------|
a|--------------------------------------------------------|
F|--------------------------------------------------------|
C|--------------------------------------------------------|
G|--------------------------------------------------------|
D|--------------------------------------------------------|
A|-4/55\4/77757-4/55\4/77757-8\77/8\5555544-8\77\8/555544-|
   . .. . ..... . .. . ..... . .. . ....... . .. . ......  .palm mute

Bridge4:
d|-------------------------------------------------------------|
a|-------------------------------------------------------------|
F|-------------------------------------------------------------|
C|-------------------------------------------------------------|
G|-6/77\6/99979-6/77\6/99979-10\99/10\77x7766-10\99/10\77x7766-|
D|-6/77\6/99979-6/77\6/99979-10\99/10\77x7766-10\99/10\77x7766-|
A|-4/55\4/77757-4/55\4/77757- 8\77/ 8\55x5544- 8\77/ 8\55x5544-|

Chorus:
d|-------------------------------------------------------------------------|
a|-------------------------------------------------------------------------|
F|-------------------------------------------------------------------------|
C|-------------------------------------------------------------------------|	(guitar1)
G|-77777777--575-1010101010101010-575-1212121212121212-5~~~~-777777777-575-|
D|-77777777--575-1010101010101010-575-1212121212121212-5~~~~-777777777-575-|
A|-55555555--353- 8 8 8 8 8 8 8 8-353-1010101010101010-3~~~~-555555555-353-|

d|-------------------------------------------------------------------------|
a|-------------------------------------------------------------------------|
F|-------------------------------------------------------------------------|
C|-------------------------------------------------------------------------|	(guitar2)
G|-7910-7910-710-575-7910-7910-710-575-7910-7910-710-5~~~7910-7910-710-575-|
D|---------------575---------------575---------------5~~~--------------575-|
A|---------------353---------------575---------------5~~~--------------575-|

d|--------------------------------------------------|
a|--------------------------------------------------|
F|--------------------------------------------------|
C|-212121212121212119191919191919191717171717171717-|	(synth)
G|-xxxxxxxxxxxxxxxxxxxxxxxxxxxxxxxxxxxxxxxxxxxxxxxx-|
D|-191919191919191917171717171717171515151515151515-|
A|--------------------------------------------------|

KoRn - Hold On - Untitled

Tabbed by Elvisz (elvisz84@yahoo.com)
Tuning : 7 String Tuned Low to High (A D G C F a d)

Vocal: Jonathan Houseman Davis 'Hiv'
Guitar: James Randal Shaffer 'Munky'
Bass: Reginald Arvizu 'Fieldy'
Drums: Brooks Wackerman

Intro:
d|------------------------------------------------|
a|------------------------------------------------|
F|------------------------------------------------|
C|------------------------------------------------|	(guitar1)
G|-2~~~~--2-2~~~~---------------------------------|
D|-2~~~~--2-2~~~~--2-2-3-2------------------------|
A|-0~~~~--0-0~~~~--0-0-1-0--0000h1\(0)-0000h1\(0)-|
                            .......... ..........  .palm mute

d|---------------------------------------------------------------------|
a|---------------------------------------------------------------------|
F|---------------------------------------------------------------------|
C|-1616161616161616\1515151515151515\1414141414141414\1313131313131313-| (guitar2)
G|-xxxxxxxxxxxxxxxxxxxxxxxxxxxxxxxxxxxxxxxxxxxxxxxxxxxxxxxxxxxxxxxxxxx-|
D|-1414141414141414\1313131313131313\1212121212121212\1111111111111111-|
A|---------------------------------------------------------------------|

Verse:
d|--------------------------------|
a|--------------------------------|
F|--------------------------------|
C|--------------------------------|
G|--------------------------------|
D|-2-2-3-2------------------------|
A|-0-0-1-0--0000h1\(0)-0000h1\(0)-|
            .......... ..........  .palm mute

Fill1:
d|--------------------------------|
a|--------------------------------|
F|--------------------------------|
C|---999x10x11x12----999x10x11x12-|
G|---xxxxxxxxxxxx----xxxxxxxxxxxx-|
D|---777x 8x 9x10----777x 8x 9x10-|
A|-0---------------0--------------|

Verse:
d|--------------------------------|
a|--------------------------------|
F|--------------------------------|
C|--------------------------------|
G|--------------------------------|
D|-2-2-3-2------------------------|
A|-0-0-1-0--0000h1\(0)-0000h1\(0)-|
            .......... ..........  .palm mute

Pre-Chorus:
d|--------------------------------|
a|--------------------------------|
F|--------------------------------|
C|--------------------------------|	(guitar1)
G|--------------------------------|
D|-2-2-3-2------------------------|
A|-0-0-1-0--0000h1\(0)-0000h1\(0)-|
            .......... ..........  .palm mute

d|--------------------------|
a|--------------------------|
F|--------------------------|
C|-9999999999999999\77/1010-|	(guitar2)
G|-xxxxxxxxxxxxxxxxxxxxxxxx-|
D|-7777777777777777\55/ 8 8-|
A|--------------------------|

Chorus:
(guitar1)
d|------------------------------------------|
a|------------------------------------------|
F|------------------------------------------|
C|------------------------------------------|	(guitar1)
G|------------------------------------------|
D|---77h8r7----77h8r7----77h8r7----77h8r7---|
A|-0-------0-0-------0-0-------0-0--------0-|

d|------------------------------------|
a|------------------------------------|
F|-1212121212121212\11111111\10101010-|
C|-xxxxxxxxxxxxxxxxxxxxxxxxxxxxxxxxxx-|	(guitar1)
G|-1010101010101010\ 9 9 9 9\ 8 8 8 8-|
D|------------------------------------|
A|------------------------------------|

d|------------------------------------------|
a|------------------------------------------|
F|------------------------------------------|
C|------------------------------------------|	(guitar1)
G|------------------------------------------|
D|---77h8r7----77h8r7----77h8r7----77h8r7---|
A|-0-------0-0-------0-0-------0-0--------0-|

(guitar2)
d|-----------------------------|
a|-----------------------------|
F|-8~9~-12~-11~--8~-9~-12~-11~-|
C|-x-x--xx--xx---x--x--xx---x--|	(guitar2)
G|-6~7~-10~- 9~--6~-7~-10~- 9~-|
D|-----------------------------|
A|-----------------------------|

d|------------------------------------|
a|------------------------------------|
F|-1212121212121212\11111111\10101010-|
C|-xxxxxxxxxxxxxxxxxxxxxxxxxxxxxxxxxx-|	(guitar2)
G|-1010101010101010\ 9 9 9 9\ 8 8 8 8-|
D|------------------------------------|
A|------------------------------------|

d|-------------------------------------|
a|-------------------------------------|
F|-16161616\12121212\11111111/17171717-|
C|-xxxxxxxxxxxxxxxxxxxxxxxxxxxxxxxxxxx-|	(guitar2)
G|-14141414\10101010\ 9 9 9 9/15151515-|
D|-------------------------------------|
A|-------------------------------------|

Pre-Verse:
d|---------------------------------------|
a|---------------------------------------|
F|---------888/9\11----------121212\11\9-|
C|---------xxxxxxxx----------xxxxxxxxxxx-|
G|---------666/7/ 9----------101010\ 9\7-|
D|-2-2-3-2-----------2-2-3-2-------------|
A|-0-0-1-0-----------0-0-1-0-------------|

d|------------------------------------------|
a|------------------------------------------|
F|---------888/9\11----------111111/1212/16-|
C|---------xxxxxxxx----------xxxxxxxxxxxxxx-|
G|---------666/7/ 9---------- 9 9 9/1010/14-|
D|-2-2-3-2-----------2-2-3-2----------------|
A|-0-0-1-0-----------0-0-1-0----------------|

Verse:
d|---------|
a|---------|
F|---------|
C|---------|
G|---------|
D|-2-2-3-2-|
A|-0-0-1-0-|

d|--------------------------------|
a|--------------------------------|
F|--------------------------------|
C|--------------------------------|
G|--------------------------------|
D|-2-2-3-2------------------------|
A|-0-0-1-0--0000h1\(0)-0000h1\(0)-|
            .......... ..........  .palm mute

Fill1:
d|--------------------------------|
a|--------------------------------|
F|--------------------------------|
C|---999x10x11x12----999x10x11x12-|
G|---xxxxxxxxxxxx----xxxxxxxxxxxx-|
D|---777x 8x 9x10----777x 8x 9x10-|
A|-0---------------0--------------|

Verse:
d|--------------------------------|
a|--------------------------------|
F|--------------------------------|
C|--------------------------------|
G|--------------------------------|
D|-2-2-3-2------------------------|
A|-0-0-1-0--0000h1\(0)-0000h1\(0)-|
            .......... ..........  .palm mute

Pre-Chorus:
d|--------------------------------|
a|--------------------------------|
F|--------------------------------|
C|--------------------------------|	(guitar1)
G|--------------------------------|
D|-2-2-3-2------------------------|
A|-0-0-1-0--0000h1\(0)-0000h1\(0)-|
            .......... ..........  .palm mute

d|--------------------------|
a|--------------------------|
F|--------------------------|
C|-9999999999999999\77/1010-|	(guitar2)
G|-xxxxxxxxxxxxxxxxxxxxxxxx-|
D|-7777777777777777\55/ 8 8-|
A|--------------------------|

Chorus:
(guitar1)
d|------------------------------------------|
a|------------------------------------------|
F|------------------------------------------|
C|------------------------------------------|	(guitar1)
G|------------------------------------------|
D|---77h8r7----77h8r7----77h8r7----77h8r7---|
A|-0-------0-0-------0-0-------0-0--------0-|

d|------------------------------------|
a|------------------------------------|
F|-1212121212121212\11111111\10101010-|
C|-xxxxxxxxxxxxxxxxxxxxxxxxxxxxxxxxxx-|	(guitar1)
G|-1010101010101010\ 9 9 9 9\ 8 8 8 8-|
D|------------------------------------|
A|------------------------------------|

d|------------------------------------------|
a|------------------------------------------|
F|------------------------------------------|
C|------------------------------------------|	(guitar1)
G|------------------------------------------|
D|---77h8r7----77h8r7----77h8r7----77h8r7---|
A|-0-------0-0-------0-0-------0-0--------0-|

(guitar2)
d|-----------------------------|
a|-----------------------------|
F|-8~9~-12~-11~--8~-9~-12~-11~-|
C|-x-x--xx--xx---x--x--xx---x--|	(guitar2)
G|-6~7~-10~- 9~--6~-7~-10~- 9~-|
D|-----------------------------|
A|-----------------------------|

d|------------------------------------|
a|------------------------------------|
F|-1212121212121212\11111111\10101010-|
C|-xxxxxxxxxxxxxxxxxxxxxxxxxxxxxxxxxx-|	(guitar2)
G|-1010101010101010\ 9 9 9 9\ 8 8 8 8-|
D|------------------------------------|
A|------------------------------------|

d|-------------------------------------|
a|-------------------------------------|
F|-16161616\12121212\11111111/17171717-|
C|-xxxxxxxxxxxxxxxxxxxxxxxxxxxxxxxxxxx-|	(guitar2)
G|-14141414\10101010\ 9 9 9 9/15151515-|
D|-------------------------------------|
A|-------------------------------------|

Fill2:
d|---------------------------------------|
a|---------------------------------------|
F|---------888/9\11----------121212\11\9-|
C|---------xxxxxxxx----------xxxxxxxxxxx-|
G|---------666/7/ 9----------101010\ 9\7-|
D|-2-2-3-2-----------2-2-3-2-------------|
A|-0-0-1-0-----------0-0-1-0-------------|

Bridge1:
d|---------------------------------------------------------------------|
a|---------------------------------------------------------------------|
F|-16161616---------19191919---------15151515---------16161616---------|
C|-xxxxxxxx---------xxxxxxxx---------xxxxxxxx---------xxxxxxxx---------|
G|-14141414---------17171717---------13131313---------14141414---------|
D|---------------------------------------------------------------------|
A|----------0-00010----------0-00010----------0-00010----------0-00010-|
            . .....          . .....          . .....          . .....  .palm mute  

Pre-Chorus:
d|--------------------------------|
a|--------------------------------|
F|--------------------------------|
C|--------------------------------|
G|--------------------------------|
D|-2-2-3-2------------------------|
A|-0-0-1-0--0000h1\(0)-0000h1\(0)-|
            .......... ..........  .palm mute

Chorus:
(guitar1)
d|------------------------------------------|
a|------------------------------------------|
F|------------------------------------------|
C|------------------------------------------|	(guitar1)
G|------------------------------------------|
D|---77h8r7----77h8r7----77h8r7----77h8r7---|
A|-0-------0-0-------0-0-------0-0--------0-|

d|------------------------------------|
a|------------------------------------|
F|-1212121212121212\11111111\10101010-|
C|-xxxxxxxxxxxxxxxxxxxxxxxxxxxxxxxxxx-|	(guitar1)
G|-1010101010101010\ 9 9 9 9\ 8 8 8 8-|
D|------------------------------------|
A|------------------------------------|

d|------------------------------------------|
a|------------------------------------------|
F|------------------------------------------|
C|------------------------------------------|	(guitar1)
G|------------------------------------------|
D|---77h8r7----77h8r7----77h8r7----77h8r7---|
A|-0-------0-0-------0-0-------0-0--------0-|

(guitar2)
d|-----------------------------|
a|-----------------------------|
F|-8~9~-12~-11~--8~-9~-12~-11~-|
C|-x-x--xx--xx---x--x--xx---x--|	(guitar2)
G|-6~7~-10~- 9~--6~-7~-10~- 9~-|
D|-----------------------------|
A|-----------------------------|

d|------------------------------------|
a|------------------------------------|
F|-1212121212121212\11111111\10101010-|
C|-xxxxxxxxxxxxxxxxxxxxxxxxxxxxxxxxxx-|	(guitar2)
G|-1010101010101010\ 9 9 9 9\ 8 8 8 8-|
D|------------------------------------|
A|------------------------------------|

d|-------------------------------------|
a|-------------------------------------|
F|-16161616\12121212\11111111/17171717-|
C|-xxxxxxxxxxxxxxxxxxxxxxxxxxxxxxxxxxx-|	(guitar2)
G|-14141414\10101010\ 9 9 9 9/15151515-|
D|-------------------------------------|
A|-------------------------------------|

Outro:
d|---------------------|
a|---------------------|
F|---------------------|
C|---------------------|
G|---------------------|
D|-2-2-3-2-------------|
A|-0-0-1-0--0000h1\(0)-|
            ..........  .palm mute

KoRn - Kiss - Untitled

Tabbed by Elvisz (elvisz84@yahoo.com)
Tuning : 7 String Tuned Low to High (A D G C F a d)

Vocal: Jonathan Houseman Davis 'Hiv'
Guitar: James Randal Shaffer 'Munky'
Bass: Reginald Arvizu 'Fieldy'
Drums: Terry Bozzio
additional drums: Jonathan Davis

Intro:
d|---------------------------------------------|
a|---------------------------------------------|
F|-9-9-9-9-12-12-12-12-17-17-17-19-16-16-16-14-|
C|-7-7-7-7-10-10-10-10-15-15-15-17-14-14-14-12-|
G|---------------------------------------------|
D|---------------------------------------------|
A|---------------------------------------------|

Fill1:(in intro)
d|----------|
a|----------|
F|-14-14~~--|
C|----------|
G|----------|
D|----------|
A|----------|

Verse:
d|---------------------------------------------|
a|---------------------------------------------|
F|-9-9-9-9-12-12-12-12-17-17-17-19-16-16-16-14-|
C|-7-7-7-7-10-10-10-10-15-15-15-17-14-14-14-12-|	(guitar1)
G|---------------------------------------------|
D|---------------------------------------------|
A|---------------------------------------------|

d|----------------------------|
a|----------------------------|
F|----------------------------|
C|----------------------------|	(guitar2)
G|----------------------------|
D|-5~~~~8~~~~13~~~~12~~~~~10~-|
A|----------------------------|

d|---------------------------------------------|
a|---------------------------------------------|
F|-9-9-9-9-12-12-12-12-17-17-17-19-16-16-16-14-|
C|-7-7-7-7-10-10-10-10-15-15-15-17-14-14-14-12-|	(guitar1)
G|---------------------------------------------|
D|---------------------------------------------|
A|---------------------------------------------|

d|----------------------------------------------------|
a|----------------------------------------------------|
F|----------------------------------------------------|
C|----------------------------------------------------|	(guitar2)
G|----------------------------------------------------|
D|-55555555888888881313131313131313121212121212121210-|
A|----------------------------------------------------|

Fill1:(in verse)
d|----------|
a|----------|
F|-14-14~~--|
C|----------|
G|----------|
D|----------|
A|----------|

Chorus:
(guitar1)
d|---------------------------|
a|---------------------------|
F|---------------------------|
C|--------------10~~~~-9~~~~-|	(Guitar1)
G|-7~~~~-10~~~~-10~~~~-9~~~~-|
D|-7~~~~-10~~~~- 8~~~~-7~~~~-|
A|-5~~~~- 8~~~~--------------|

(guitar2)
d|---------------------------------|
a|---------------------------------|
F|---------------------------------|
C|---------------------------------|	(guitar2)
G|---------------------------------|
D|-77-77-77-7\\\\\-77-77-77-7\\\\\-|
A|-55-55-55-5\\\\\-55-55-55-5\\\\\-|
   .. .. .. .      .. .. .. .       .palm mute

d|-----------------------------|
a|-----------------------------|
F|-----------------------------|
C|-----------------------------|	(guitar2)
G|-----------------------------|
D|-77-77-77-7-7-77-7-7-7~~-7-77|
A|-55-55-55-5-5-55-5-5-5~~-5-55|
   .. .. ..     .  .       .    .palm mute

(guitar3)
d|-----------------------------------|
a|-1717171717171717-1515151515151515-|
F|-----------------------------------|
C|-----------------------------------|	(guitar3)
G|-----------------------------------|
D|-----------------------------------|
A|-----------------------------------|

d|-----------------------------------|
a|-1717171717171717-1212121313121010-|
F|-----------------------------------|
C|-----------------------------------|	(guitar3)
G|-----------------------------------|
D|-----------------------------------|
A|-----------------------------------|

Verse:
d|---------------------------------------------|
a|---------------------------------------------|
F|-9-9-9-9-12-12-12-12-17-17-17-19-16-16-16-14-|
C|-7-7-7-7-10-10-10-10-15-15-15-17-14-14-14-12-|	(guitar1)
G|---------------------------------------------|
D|---------------------------------------------|
A|---------------------------------------------|

d|----------------------------|
a|----------------------------|
F|----------------------------|
C|----------------------------|	(guitar2)
G|----------------------------|
D|-5~~~~8~~~~13~~~~12~~~~~10~-|
A|----------------------------|

d|---------------------------------------------|
a|---------------------------------------------|
F|-9-9-9-9-12-12-12-12-17-17-17-19-16-16-16-14-|
C|-7-7-7-7-10-10-10-10-15-15-15-17-14-14-14-12-|	(guitar1)
G|---------------------------------------------|
D|---------------------------------------------|
A|---------------------------------------------|

d|----------------------------------------------------|
a|----------------------------------------------------|
F|----------------------------------------------------|
C|----------------------------------------------------|	(guitar2)
G|----------------------------------------------------|
D|-55555555888888881313131313131313121212121212121210-|
A|----------------------------------------------------|

Fill1:(in verse)
d|----------|
a|----------|
F|-14-14~~--|
C|----------|
G|----------|
D|----------|
A|----------|

Fill2:(in verse)
d|--------------------------------------------------------|
a|--------------------------------------------------------|
F|--------------------------------------------------------|
C|-14~/15-14-15--14-12-10-9~~--14~/15-14-15--14-12-10-9~~-|
G|--------------------------------------------------------|
D|--------------------------------------------------------|
A|--------------------------------------------------------|

Chorus:
(guitar1)
d|---------------------------|
a|---------------------------|
F|---------------------------|
C|--------------10~~~~-9~~~~-|	(Guitar1)
G|-7~~~~-10~~~~-10~~~~-9~~~~-|
D|-7~~~~-10~~~~- 8~~~~-7~~~~-|
A|-5~~~~- 8~~~~--------------|

(guitar2)
d|---------------------------------|
a|---------------------------------|
F|---------------------------------|
C|---------------------------------|	(guitar2)
G|---------------------------------|
D|-77-77-77-7\\\\\-77-77-77-7\\\\\-|
A|-55-55-55-5\\\\\-55-55-55-5\\\\\-|
   .. .. .. .      .. .. .. .       .palm mute

d|-----------------------------|
a|-----------------------------|
F|-----------------------------|
C|-----------------------------|	(guitar2)
G|-----------------------------|
D|-77-77-77-7-7-77-7-7-7~~-7-77|
A|-55-55-55-5-5-55-5-5-5~~-5-55|
   .. .. ..     .  .       .    .palm mute

(guitar3)
d|-----------------------------------|
a|-1717171717171717-1515151515151515-|
F|-----------------------------------|
C|-----------------------------------|	(guitar3)
G|-----------------------------------|
D|-----------------------------------|
A|-----------------------------------|

d|-----------------------------------|
a|-1717171717171717-1212121313121010-|
F|-----------------------------------|
C|-----------------------------------|	(guitar3)
G|-----------------------------------|
D|-----------------------------------|
A|-----------------------------------|

Bridge1:
d|------------------------------------------------------|
a|------------------------------------------------------|
F|----------------------------------21~~----------------|
C|-21^(22)'2119~~-21^(22)211922~24~~-----19~~~~~-17-19~-|
G|------------------------------------------------------|
D|------------------------------------------------------|
A|------------------------------------------------------|

Bridge2:
d|---------------------------------|
a|---------------------------------|
F|---------------------------------|
C|---------------------------------|
G|---------------------------------|
D|-77-77-77-7\\\\\-77-77-77-7\\\\\-|
A|-55-55-55-5\\\\\-55-55-55-5\\\\\-|
   .. .. .. .      .. .. .. .       .palm mute

Chorus:
(guitar1)
d|---------------------------------|
a|---------------------------------|
F|---------------------------------|
C|---------------------------------|	(guitar1)
G|---------------------------------|
D|-77-77-77-7\\\\\-77-77-77-7\\\\\-|
A|-55-55-55-5\\\\\-55-55-55-5\\\\\-|
   .. .. .. .      .. .. .. .       .palm mute

d|-----------------------------|
a|-----------------------------|
F|-----------------------------|
C|-----------------------------|	(guitar1)
G|-----------------------------|
D|-77-77-77-7-7-77-7-7-7~~-7-77|
A|-55-55-55-5-5-55-5-5-5~~-5-55|
   .. .. ..     .  .       .    .palm mute

(guitar2)
d|------------------------------------------|
a|------------------------------------------|
F|-14~~~~~~16~17~~~21~14~~~~17~~12~~~~~~~9~-|
C|------------------------------------------|	(guitar2)
G|------------------------------------------|
D|------------------------------------------|
A|------------------------------------------|

d|------------------------------------------|
a|------------------------------------------|
F|-14~~-91412~~~~-1412----------------------|
C|--------------------1412~~~~~(14)~~15~17~-|	(guitar2)
G|------------------------------------------|
D|------------------------------------------|
A|------------------------------------------|

KoRn - Do What They Say - Untitled

Tabbed by Elvisz (elvisz84@yahoo.com)
Tuning : 7 String Tuned Low to High (A D G C F a d)

Vocal: Jonathan Houseman Davis 'Hiv'
Guitar: James Randal Shaffer 'Munky'
Bass: Reginald Arvizu 'Fieldy'
Drums: Terry Bozzio

Intro:
d|--------------------------|
a|--------------------------|
F|--------------------------|
C|--------------------------|
G|--------------------------|
D|-1/2-0~~~~~-5~~~-0~~~~~~~-|
A|--------------------------|
              .              .palm mute

Verse:
d|--------------------------|
a|--------------------------|
F|--------------------------|
C|--------------------------|
G|--------------------------|
D|-1/2-0~~~~~-5~~~-0~~~~~~~-|
A|--------------------------|
              .              .palm mute

Pre-Chorus:
(guitar1)
d|---------------------|
a|---------------------|
F|---------------------|
C|---------------------|
G|-2~~2-4~~4-5~~5-7~~7-|
D|-0~~0-2~~2-3~~3-5~~5-|
A|---------------------|

(guitar2)
d|-----------------------------------------------|
a|-----------------------------------------------|
F|-----------------------------------------------|
C|-----------------------------------------------|
G|-----7---7-------5---5-------5---5-----55---5/-|
D|-0~~---0---0~2~~---2---2~3~~---3---3-5----5----|
A|-----------------------------------------------|

(guitar3)
d|------------------------------------------|
a|------------------------------------------|
F|//17~~~~~~\16//17~~~~~~\16//17~~~~~^^(19)-|
C|------------------------------------------|
G|------------------------------------------|
D|------------------------------------------|
A|------------------------------------------|

Chorus:
(guitar1)
d|--------------------------------------------|
a|--------------------------------------------|
F|--------------------------------------------|
C|-2~2~~-12~~-11~~-5~~--2~2~~-12~~-11~~-5/7\5-|
G|-2~2~~-12~~-11~~-5~~--2~2~~-12~~-11~~-5/7\5-|
D|-0~0~~-10~~- 9~~-3~~--0~0~~-10~~- 9~~-3/5\3-|
A|--------------------------------------------|

d|--------------------------------------------|
a|--------------------------------------------|
F|--------------------------------------------|
C|-2~2~~-12~~-11~~-5~~--2~2~~-12~~-11~~-10~~~-|
G|-2~2~~-12~~-11~~-5~~--2~2~~-12~~-11~~-10~~~-|
D|-0~0~~-10~~- 9~~-3~~--0~0~~-10~~- 9~~- 8~~~-|
A|--------------------------------------------|

(guitar2)
d|------------------------------------------|
a|------------------------------------------|
F|//17~~~~~^^(19)~~16~~~~^^^(19)~~14~~12~~~-|
C|------------------------------------------|
G|------------------------------------------|
D|------------------------------------------|
A|------------------------------------------|

Verse:
d|--------------------------|
a|--------------------------|
F|--------------------------|
C|--------------------------|
G|--------------------------|
D|-1/2-0~~~~~-5~~~-0~~~~~~~-|
A|--------------------------|
              .              .palm mute

Pre-Chorus:
(guitar1)
d|---------------------|
a|---------------------|
F|---------------------|
C|---------------------|
G|-2~~2-4~~4-5~~5-7~~7-|
D|-0~~0-2~~2-3~~3-5~~5-|
A|---------------------|

(guitar2)
d|-----------------------------------------------|
a|-----------------------------------------------|
F|-----------------------------------------------|
C|-----------------------------------------------|
G|-----7---7-------5---5-------5---5-----55---5/-|
D|-0~~---0---0~2~~---2---2~3~~---3---3-5----5----|
A|-----------------------------------------------|

(guitar3)
d|------------------------------------------|
a|------------------------------------------|
F|//17~~~~~~\16//17~~~~~~\16//17~~~~~^^(19)-|
C|------------------------------------------|
G|------------------------------------------|
D|------------------------------------------|
A|------------------------------------------|

Chorus:
(guitar1)
d|--------------------------------------------|
a|--------------------------------------------|
F|--------------------------------------------|
C|-2~2~~-12~~-11~~-5~~--2~2~~-12~~-11~~-5/7\5-|
G|-2~2~~-12~~-11~~-5~~--2~2~~-12~~-11~~-5/7\5-|
D|-0~0~~-10~~- 9~~-3~~--0~0~~-10~~- 9~~-3/5\3-|
A|--------------------------------------------|

d|--------------------------------------------|
a|--------------------------------------------|
F|--------------------------------------------|
C|-2~2~~-12~~-11~~-5~~--2~2~~-12~~-11~~-10~~~-|
G|-2~2~~-12~~-11~~-5~~--2~2~~-12~~-11~~-10~~~-|
D|-0~0~~-10~~- 9~~-3~~--0~0~~-10~~- 9~~- 8~~~-|
A|--------------------------------------------|

(guitar2)
d|------------------------------------------|
a|------------------------------------------|
F|//17~~~~~^^(19)~~16~~~~^^^(19)~~14~~12~~~-|
C|------------------------------------------|
G|------------------------------------------|
D|------------------------------------------|
A|------------------------------------------|

Bridge1:
(guitar1)
d|-----------------------------------------------|
a|-----------------------------------------------|
F|-----------------------------------------------|
C|-12-1212-12-1212-5-55-5-55-9-99-9-99-9-99-9-99-|
G|-----------------------------------------------|
D|-----------------------------------------------|
A|-----------------------------------------------|
      ....    ....   ..   ..   ..  ..    ..   ..  .palm mute

(guitar2)
d|-----------------------------------------------|
a|-----------------------------------------------|
F|-----------------------------------------------|
C|-----------------------------------------------|
G|-----------------------------------------------|
D|-10-1010-10-1010-3-33-3-33-7-77-7-77-7-77-7-77-|
A|-----------------------------------------------|
      ....    ....   ..   ..   ..  ..    ..   ..  .palm mute

Bridge2:
(guitar1)
d|-----------------------|
a|-----------------------|
F|-9999-1010-10-5555-777-|
C|-9999-1010-10-5555-777-|
G|-7777- 8 8- 8-3333-555-|
D|-----------------------|
A|-----------------------|

d|--------------------|
a|--------------------|
F|--------------------|
C|--------------------|
G|-2222-33-3----------|
D|-0000-11-1-3333-555-|
A|-----------1111-333-|

Bridge3:
(guitar1)
d|--------------------------------------------|
a|--------------------------------------------|
F|--------------------------------------------|
C|-2~2~~-12~~-11~~-5~~--2~2~~-12~~-11~~-10~~~-|
G|-2~2~~-12~~-11~~-5~~--2~2~~-12~~-11~~-10~~~-|
D|-0~0~~-10~~- 9~~-3~~--0~0~~-10~~- 9~~- 8~~~-|
A|--------------------------------------------|

(guitar2)
d|------------------------------------------|
a|------------------------------------------|
F|//17~~~~~^^(19)~~16~~~~^^^(19)~~14~~12~~~-|
C|------------------------------------------|
G|------------------------------------------|
D|------------------------------------------|
A|------------------------------------------|

Chorus:
(guitar1)
d|--------------------------------------------|
a|--------------------------------------------|
F|--------------------------------------------|
C|-2~2~~-12~~-11~~-5~~--2~2~~-12~~-11~~-5/7\5-|
G|-2~2~~-12~~-11~~-5~~--2~2~~-12~~-11~~-5/7\5-|
D|-0~0~~-10~~- 9~~-3~~--0~0~~-10~~- 9~~-3/5\3-|
A|--------------------------------------------|

d|--------------------------------------------|
a|--------------------------------------------|
F|
Добавлено: 13.06.2012
Другие материалы по этой песне:
  • Аккорды и текст

Страница создана 13.06.2012
http://primanota.ru/korn/untitled-album-chords.htm
Привет, Гость.
Предлагаем пройти революционный курс по гитаре.
Подарок от PrimaNota.Ru, забирай!