PrimaNota.ru - самый крупный в мире бесплатный архив песенных текстов, аккордов, табулатур и нот


Korn - Souvenir - текст песни, бас-таба, видео

Регистрация Запомнить меня
Войти через:  Facebook Google Twitter Vk Yandex Mail.ru

Korn - Souvenir - текст песни, бас-таба, видео

Печатать
Просмотров: 317
Уроки эстрадного вокала в Санкт-Петербурге
Pre-Verse:
F----------------------|---------------------|
C----------------------|---------------------|
G-----8~---------10-11-|-----8~---------1110-|
D----------------------|---------------------|
A-5-5------5-5-5-------|-5-5------5-5-5------|

F-----------------------|----------------------|
C-----------------------|----------------------|
G-----------------------|----------------------|
D-----------------------|----------------------|
A-5-5--8~~-5-5-5--10-11-|-5-5--8~~-5-5-5--1110-|

Verse: x6
F-----------------------------|
C-----------------------------|
G-----------------------------|
D-----------------------------|
A-5~-533-633-53-5~-533-633-53-|

Pre-Chorus: x4
F-------------------------|
C-------------------------|
G-------------------------|
D-------------------------|
A-5/4-4/3-2/1--2--2-3-4-5-|

Chorus:
F----------------------|---------------------|
C----------------------|---------------------|
G-----8~---------10-11-|-----8~---------1110-|
D----------------------|---------------------|
A-5-5------5-5-5-------|-5-5------5-5-5------|

F-----------------------|----------------------|
C-----------------------|----------------------|
G-----------------------|----------------------|
D-----------------------|----------------------|
A-5-5--8~~-5-5-5--10-11-|-5-5--8~~-5-5-5--1110-|

Verse: x6
F-----------------------------|
C-----------------------------|
G-----------------------------|
D-----------------------------|
A-5~-533-633-53-5~-533-633-53-|

Pre-Chorus: x4
F-------------------------|
C-------------------------|
G-------------------------|
D-------------------------|
A-5/4-4/3-2/1--2--2-3-4-5-|

Chorus:
F----------------------|---------------------|
C----------------------|---------------------|
G-----8~---------10-11-|-----8~---------1110-|
D----------------------|---------------------|
A-5-5------5-5-5-------|-5-5------5-5-5------|

F-----------------------|----------------------|
C-----------------------|----------------------|
G-----------------------|----------------------|
D-----------------------|----------------------|
A-5-5--8~~-5-5-5--10-11-|-5-5--8~~-5-5-5--1110-|

[rest through guitar part]

Bridge: x4
F---------|
C---------|
G---------|
D---------|
A-5-5--98-|

Pre-Chorus: x4
F-------------------------|
C-------------------------|
G-------------------------|
D-------------------------|
A-5/4-4/3-2/1--2--2-3-4-5-|

Chorus:
F----------------------|---------------------|
C----------------------|---------------------|
G-----8~---------10-11-|-----8~---------1110-|
D----------------------|---------------------|
A-5-5------5-5-5-------|-5-5------5-5-5------|

F-----------------------|----------------------|
C-----------------------|----------------------|
G-----------------------|----------------------|
D-----------------------|----------------------|
A-5-5--8~~-5-5-5--10-11-|-5-5--8~~-5-5-5--1110-|
Добавлено: 25.07.2012
Другие материалы по этой песне:

Страница создана 08.05.2012
http://primanota.ru/korn/souvenir-chords.htm
Привет, Гость.
Предлагаем пройти революционный курс по гитаре.
Подарок от PrimaNota.Ru, забирай!