PrimaNota.ru - самый крупный в мире бесплатный архив песенных текстов, аккордов, табулатур и нот


Korn - Sing Sorrow - текст песни, таба, видео

Регистрация Запомнить меня
Войти через:  Facebook Google Twitter Vk Yandex Mail.ru

Korn - Sing Sorrow - текст песни, таба, видео

Печатать
Просмотров: 149
KoRn - Sing Sorrow - Untitled

Tabbed by Elvisz (elvisz84@yahoo.com)
Tuning : 7 String Tuned Low to High (A D G C F a d)
         8 String tuned Low to High (F# A D G C F a d)

Vocal: Jonathan Houseman Davis 'Hiv'
Guitar: James Randal Shaffer 'Munky'
Bass: Reginald Arvizu 'Fieldy'
Drums: Terry Bozzio

Pre-Verse:
d|-----------------------------------|
a|-----------------------------------|
F|-----------------------------------|
C|-----------------------------------|
G|-77-77--77-77--99-99-1010-1010--\\-|
D|-77-77--77-77--99-99-1010-1010--\\-|
A|-55-55--55-55--77-77- 8 8- 8 8--\\-|

Verse:
d|--------------------------------------------------- 0~-|
a|---------------------------------------------------17~-|
F|-------------------------------------------------------|
C|-------------------------------------------------------|
G|-------h10r7-------h10r7--------h12r9-------h14r10-----|
D|-------------------------------------------------------|
A|-55555-------55555--------77777-------88888------------|
   .....       .....        .....       .....              .palm mute

Pre-Chorus:
d|--------------|
a|--------------|
F|--------------|
C|-15~~~~14~~~~-|
G|-xx----xx-----|
D|-13~~~~12~~~~-|
A|- 0~~~~ 0~~~~-|

Chorus:
d|-------------------------------------|
a|-------------------------------------|
F|-------------------------------------|
C|-------------------------------------|	(guitar1)
G|-------------------------------------|
D|-------------------------------------|
A|-5555-54444-444-44-5555-54444-444-44-|
F#|------------------------------------|
   .... ..... ... .. .... ..... ... ..  .palm mute

d|------------------------------|
a|------------------------------|
F|------------------------------|
C|------------------------------|	(guitar1)
G|------------------------------|
D|--------------------------5~~-|
A|-2222-21111-111-11-0000-0-5~~-|
F#|-------------------------3~~-|
   .... ..... ... .. .... .      .palm mute

d|-------------------------------------------------|
a|-------------------------------------------------|
F|-24-2424-24-23-2323-2323-24-2424-24-23-2323-2323-|
C|-xx-xxxx-xx-xx-xxxx-xxxx-xx-xxxx-xx-xx-xxxx-xxxx-|	(guitar2)
G|-22-2222-22-21-2121-2121-22-2222-22-21-2121-2121-|
D|-------------------------------------------------|
A|-------------------------------------------------|

d|-------------------------------------------------|
a|-------------------------------------------------|
F|-21-2121-21-17-1717-1717-16-1616-16-14-1414-1414-|
C|-xx-xxxx-xx-xx-xxxx-xxxx-xx-xxxx-xx-xx-xxxx-xxxx-|	(guitar2)
G|-19-1919-19-15-1515-1515-14-1414-14-12-1212-1212-|
D|-------------------------------------------------|
A|-------------------------------------------------|

Pre-Verse:
d|-----------------------------------|
a|-----------------------------------|
F|-----------------------------------|
C|-----------------------------------|
G|-77-77--77-77--99-99-1010-1010--\\-|
D|-77-77--77-77--99-99-1010-1010--\\-|
A|-55-55--55-55--77-77- 8 8- 8 8--\\-|

Verse:
d|--------------------------------------------------- 0~-|
a|---------------------------------------------------17~-|
F|-------------------------------------------------------|
C|-------------------------------------------------------|
G|-------h10r7-------h10r7--------h12r9-------h14r10-----|
D|-------------------------------------------------------|
A|-55555-------55555--------77777-------88888------------|
   .....       .....        .....       .....              .palm mute

Pre-Chorus:
d|--------------|
a|--------------|
F|--------------|
C|-15~~~~14~~~~-|
G|-xx----xx-----|
D|-13~~~~12~~~~-|
A|- 0~~~~ 0~~~~-|

Chorus:
d|-------------------------------------|
a|-------------------------------------|
F|-------------------------------------|
C|-------------------------------------|	(guitar1)
G|-------------------------------------|
D|-------------------------------------|
A|-5555-54444-444-44-5555-54444-444-44-|
F#|------------------------------------|
   .... ..... ... .. .... ..... ... ..  .palm mute

d|------------------------------|
a|------------------------------|
F|------------------------------|
C|------------------------------|	(guitar1)
G|------------------------------|
D|--------------------------5~~-|
A|-2222-21111-111-11-0000-0-5~~-|
F#|-------------------------3~~-|
   .... ..... ... .. .... .      .palm mute

d|-------------------------------------------------|
a|-------------------------------------------------|
F|-24-2424-24-23-2323-2323-24-2424-24-23-2323-2323-|
C|-xx-xxxx-xx-xx-xxxx-xxxx-xx-xxxx-xx-xx-xxxx-xxxx-|	(guitar2)
G|-22-2222-22-21-2121-2121-22-2222-22-21-2121-2121-|
D|-------------------------------------------------|
A|-------------------------------------------------|

d|-------------------------------------------------|
a|-------------------------------------------------|
F|-21-2121-21-17-1717-1717-16-1616-16-14-1414-1414-|
C|-xx-xxxx-xx-xx-xxxx-xxxx-xx-xxxx-xx-xx-xxxx-xxxx-|	(guitar2)
G|-19-1919-19-15-1515-1515-14-1414-14-12-1212-1212-|
D|-------------------------------------------------|
A|-------------------------------------------------|

Bridge1:
d|----------------------------|
a|----------------------------|
F|----------------------------|
C|----------------------------|
G|----------------------------|
D|----------------------------|
A|-5-555-3-4-5-55-55-5-55-5-5-|
   . ... . . . .. .. . .. . .  .palm mute

Bridge2:
d|----------------------------|
a|----------------------------|
F|----------------------------|
C|----------------------------|
G|----------------------------|
D|-------5-6-7----------------|
A|-5-555-3-4-5-55-55-5-55-5-5-|
   . ...       .. .. . .. . .  .palm mute

Bridge3:
d|----------------------------|
a|----------------------------|
F|----------------------------|
C|----------------------------|	(guitar1)
G|----------------------------|
D|-------5-6-7----------------|
A|-5-555-3-4-5-55-55-5-55-5-5-|
   . ...       .. .. . .. . .  .palm mute

d|-----------------------------------|
a|-----------------------------------|
F|-----------------------------------|
C|-191919-141414-1919-1414-1919-1414-|	(guitar2)
G|-----------------------------------|
D|-----------------------------------|
A|-----------------------------------|
          ......      ....      ....  .palm mute

d|-----------------------------------|
a|-----------------------------------|
F|-----------------------------------|
C|-181818-141414-1818-1414-1818-1414-|	(guitar2)
G|-----------------------------------|
D|-----------------------------------|
A|-----------------------------------|
          ......      ....      ....  .palm mute

Bridge4:
d|------------------------------------------|
a|------------------------------------------|
F|------------------------------------------|
C|--9~~~--7~~~-------------9~~~-7~~~~-------|	(guitar1)
G|--9~~~--7~~~-5~~-7~~~~---9~~~-7~~~-7~~~~~-|
D|--7~~~--5~~~-5~~-7~~~~---7~~~-5~~--7~~~~~-|
A|-------------3~~-5~~~~-------------5~~~~~-|

d|------------------------------------------|
a|------------------------------------------|
F|-//16~-\14-------------//16~-\14~---------|
C|---xx---xx--/12~-/14-----xx---xx---14~~~~-|	(guitar2)
G|-//14~-\12~--xx---xx---//14~-\12~--xx-----|
D|------------/10~-/12~-------------/12~~~~-|
A|------------------------------------------|

Chorus:
d|-------------------------------------|
a|-------------------------------------|
F|-------------------------------------|
C|-------------------------------------|	(guitar1)
G|-------------------------------------|
D|-------------------------------------|
A|-5555-54444-444-44-5555-54444-444-44-|
F#|------------------------------------|
   .... ..... ... .. .... ..... ... ..  .palm mute

d|------------------------------|
a|------------------------------|
F|------------------------------|
C|------------------------------|	(guitar1)
G|------------------------------|
D|--------------------------5~~-|
A|-2222-21111-111-11-0000-0-5~~-|
F#|-------------------------3~~-|
   .... ..... ... .. .... .      .palm mute

d|-------------------------------------------------|
a|-------------------------------------------------|
F|-24-2424-24-23-2323-2323-24-2424-24-23-2323-2323-|
C|-xx-xxxx-xx-xx-xxxx-xxxx-xx-xxxx-xx-xx-xxxx-xxxx-|	(guitar2)
G|-22-2222-22-21-2121-2121-22-2222-22-21-2121-2121-|
D|-------------------------------------------------|
A|-------------------------------------------------|

d|-------------------------------------------------|
a|-------------------------------------------------|
F|-21-2121-21-17-1717-1717-16-1616-16-14-1414-1414-|
C|-xx-xxxx-xx-xx-xxxx-xxxx-xx-xxxx-xx-xx-xxxx-xxxx-|	(guitar2)
G|-19-1919-19-15-1515-1515-14-1414-14-12-1212-1212-|
D|-------------------------------------------------|
A|-------------------------------------------------|

Outro:
d|-------------------------------------|
a|-8~-8-10~-10-12r10--8~-8-10~-10-7h10-|
F|-9~-9-11~-11--------9~-9-11~-11------|
C|-------------------------------------|
G|-------------------------------------|
D|-------------------------------------|
A|-------------------------------------|

d|-------3~--3--3r0-----------------|
a|-5~-5--5~--5-------3~-3-2~-2--3r2-|
F|-7~-7-(7)-(7)------4~-4-2~-2------|
C|----------------------------------|
G|----------------------------------|
D|----------------------------------|
A|----------------------------------|

d|--------------------------------|
a|-8~-8-10~-10-12r10--8~-8-10~-10-|
F|-9~-9-11~-11--------9~-9-11~-11-|
C|--------------------------------|
G|--------------------------------|
D|--------------------------------|
A|--------------------------------|

d|----------------3~--3----------------0-----|
a|-12-13-15-5~-5--5~--5--3~-3-2~-2---2---3-2-|
F|----------7~-7-(7)-(7)-4~-4-2~-2-----------|
C|-------------------------------------------|
G|-------------------------------------------|
D|-------------------------------------------|
A|-------------------------------------------|
Добавлено: 22.05.2012
Другие материалы по этой песне:

Страница создана 08.03.2012
http://primanota.ru/korn/sing-sorrow-chords.htm
Привет, Гость.
Предлагаем пройти революционный курс по гитаре.
Подарок от PrimaNota.Ru, забирай!