PrimaNota.ru - самый крупный в мире бесплатный архив песенных текстов, аккордов, табулатур и нот


Korn - Seed - аккорды и текст, таба, бас-таба, видео

Регистрация Запомнить меня
Войти через:  Facebook Google Twitter Vk Yandex Mail.ru

Korn - Seed - аккорды и текст, таба, бас-таба, видео

Печатать
Просмотров: 308
Уроки эстрадного вокала в Санкт-Петербурге
Seed
Korn
Seed

I just transcribed the main chorus. The rest is pretty simple.

Chorus
d||-------------------------||
A||-------------------------||
F||----8s9-8----------------||
C||--9-8s9-89-9-10s11-10s9--||
G||--9-6s7-69-9-10s11-10s9--||
D||--7------7-7--8s-9--8s7--||

*********************************************************************
*********************************************************************

Fig 1 (Main/Chorus riff)
d||--------------------------||
A||--------------------------||
F||----8s9s8-----------------||
C||--9--------9--9-----------||
G||--9-6s7s6--9--9-10s11-10--||
D||--7--------7--7--8s-9--8--||


Fig 2 (Interlude riff)
d||----------------||
A||----------------||
F||----------------||
C||--11-10--13-10--||
G||--11-10--13-10--||
D||---9--8--11--8--||

*********************************************************************
*********************************************************************

Riff 1
d||--------------------------------------------||
a||--------------------------------------------||
F||--------------------------------------------||
C||--------------------------------------------||
G||--------13--13--12--13---------10-10--9-10--||
D||--2--2--11--11--10--11----2--2--8--8--7--8--||
A||--0--0--------------------------0--0--------||


Riff 2
d||--------------------------||
a||--------------------------||
F||--------------------------||
C||--------------------------||
G||--4--3--6--3--4--3--6--4--||
D||--4--3--6--3--4--3--6--4--||
A||--2--1--4--1--2--1--4--2--||

More Tabs in http://www.gratisweb.com/dark-music/tabs/darktabs.html

     
Добавлено: 03.06.2013
Другие материалы по этой песне:

Страница создана 06.03.2012
http://primanota.ru/korn/seed-chords.htm
Привет, Гость.
Предлагаем пройти революционный курс по гитаре.
Подарок от PrimaNota.Ru, забирай!