PrimaNota.ru - самый крупный в мире бесплатный архив песенных текстов, аккордов, табулатур и нот


Korn - Porno Creep - аккорды и текст, таба, бас-таба, видео

Регистрация Запомнить меня
Войти через:  Facebook Google Twitter Vk Yandex Mail.ru

Korn - Porno Creep - аккорды и текст, таба, бас-таба, видео

Печатать
Просмотров: 684
Porno Creep
Korn
Intro (play once)    	 Riff 1
[G------109--------10--9-----------109--------10--9--
D--7/8--87---7/8--8---7-------7/8--87--7/8---8---7--
A--5/6-x----x-5/6-0---------00-5/6-x----x-5/6-0-------]
                              Fill 1
[G------------------10--9---------------------10--------9--
D--(Bass)----------8---7----(Bass)-----------8---------7--
A-------------------000-----------------------0--0--0-----]
Riff 2...............(1-3)........  (4)..........................
[G-------109------109-----------------109------10-----10---
D--7/8---87-7/8---87---87------7/8---87-7/8---8-----8----
A--5/6-x-----5/6-x-----x-65------5/6-x-----5/6-x----00------]
Right before "record player" riff, use Fill 1 at end(4) of this riff
Fill 2
[a--------------------------21-------
F------21---------------21----------]
Verse
[d---------------------] Use a tremolo pan pedal for this
[a--22^~~~~~~~~~~~-----] effect (I think)
Chorus
[G---------------------
D--2-2-x---2-2---3-3--
A--0-0-x--00-0--01-1--]
Fill 3
[d--10~~~~~~~~~~~~~~~~--] 
Добавлено: 26.03.2014
Другие материалы по этой песне:

Страница создана 05.03.2012
http://primanota.ru/korn/porno-creep-chords.htm
Привет, Гость.
Предлагаем пройти революционный курс по гитаре.
Подарок от PrimaNota.Ru, забирай!