PrimaNota.ru - самый крупный в мире бесплатный архив песенных текстов, аккордов, табулатур и нот


Korn - Pop A Pill - текст песни, таба, бас-таба, видео

Регистрация Запомнить меня
Войти через:  Facebook Google Twitter Vk Yandex Mail.ru

Korn - Pop A Pill - текст песни, таба, бас-таба, видео

Печатать
Просмотров: 280
Уроки эстрадного вокала в Санкт-Петербурге
Korn - Korn III: Remember Who You Are - Pop A Pill

Tabbed By: FRr3AkOnALEaSh (smokin_05@hotmail.com)
Tuning: 7 String Tuned Low to High (A D G C F a d)

Vocal: Jonathan Houseman Davis 'Hiv'
Guitar: James Randal Shaffer 'Munky'
Bass: Reginald Arvizu 'Fieldy
Drums: Ray Luzier

Riff 1 (Intro)
D|----------------------------------|
A|----------------------------------|
F|----------------------------------| 
C|------000-----000-----000----5-5--|
G|------555-----555-----555---6-6---|
D|----------------------------------|
A|--333-----333-----333-------------|
    ...     ...     ...   

Riff 2 (Intro)
D|-------------------------------------|
A|-------------------------------------|
F|-------------------------------------|
C|------000-----000-----000------------|
G|------555-----555-----555---4444444--|
D|-------------------------------------|
A|--333-----333-----333----------------|
    ...     ...     ...   

Riff 3 (Intro/Verse)
D|---------------------|-------------------|
A|---------------------|-------------------|
F|---------------------|-------------------|
C|---------------------|-------------------|
G|---------------------|-------------------|
D|------------3--------|-------------------|
A|--333-0h3h4---4-3-1--|--4-4-4-4-1-1-1-4--|

Riff 4 (Chorus)
D|-------------------------------|-----------------|
A|-------------------------------|-----------------|
F|-------------------------------|-----------------|
C|-------------------------------|-----------------|
G|--5~-55-5555---5---5~-55-5555--|--3---3~33-3333--|
D|--5~-55-5555---5---5~-55-5555--|--3---3~33-3333--|
A|--3~-33-3333---3---3~-33-3333--|--1---1~11-1111--|

Riff 5 (Breakdown)
D|----------------------|-------------| 
A|----------------------|-------------| 
F|----------------------|-------------| 
C|----------------------|-------------| 
G|----------------------|-------------| 
D|----------------------|-------------|
A|--4p3-33-123-1h4-123--|--6666-5555--|
                              
Riff 6 (Breakdown)
D|---------------------------|-----------|
A|---------------------------|-----------|
F|---------------------------|-----------|
C|----0~--0~--0~-------------|-----------|
G|----5~--5~--5~--4444-777---|-----------|
D|---------------------------|-----------|
A|--3---3---3----------------|--333-222--|
    .   .   .                   ... ...   PM

Riff 7 (Breakdown)
D|-------------|
A|-------------|
F|-------------|
C|-------------|
G|-------------|
D|--5555-4444--|
A|--3333-2222--|
    .... ....   PM

Riff 5 (Breakdown)
D|---------------------------|
A|---------------------------|
F|---------------------------|
C|---------------------------| 
G|---------------------------| 
D|---------------------------|
A|--4p33-3-33-1h3-3-4-1-1h3--|
         . ..     .   .

Riff 9 (Breakdown)(Clean channel)
D|---------------|
A|---------------| Finger picked.
F|---------------|
C|--4~~~---2~~~--| Let ring out.
G|---------------|
D|---------------|
A|--3~~~---1~~~--|

Riff 10 (Outro)
D|---------------------|-------------------|
A|---------------------|-------------------|
F|---------------------|-------------------|
C|---------------------|-------------------|
G|---------------------|-------------------|
D|------------3--------|-------------------|
A|--333-0h3h4---4-3-1--|--4-4-4-4-1-1-1-1--|

NOTE: Listen to the song to structure out each riff
Добавлено: 27.03.2012
Другие материалы по этой песне:

Страница создана 05.03.2012
http://primanota.ru/korn/pop-a-pill-chords.htm
Привет, Гость.
Предлагаем пройти революционный курс по гитаре.
Подарок от PrimaNota.Ru, забирай!