PrimaNota.ru - самый крупный в мире бесплатный архив песенных текстов, аккордов, табулатур и нот


Korn - Make Believe - аккорды и текст, таба, бас-таба, видео

Регистрация Запомнить меня
Войти через:  Facebook Google Twitter Vk Yandex Mail.ru

Korn - Make Believe - аккорды и текст, таба, бас-таба, видео

Печатать
Просмотров: 227
Авторы: Korn

Make Believe
Korn
uned Down One Half Whole Step ([DGCFAd])
(Intro and Verse)
(Guitar 1)
[d-----2--3--2-----2--3--2-----------2--3--2-----2--3--2---------
A---------------------------------------------------------------
F--4-----------4-----------4--4--3-----------3-----------3--3--4
C---------------------------------------------------------------
G---------------------------------------------------------------]
[D---------------------------------------------------------------](Clean)
(Pre Chorus)
(Guitars 1 and 2)
[d---------------------------------
A---------------------------------
F--4--6---------------------------
C--4--6--5--3---------------------
G--2--4--5--3---------------------]
[D--------3--1---------------------](Distortion)
(Chorus)
(Guitar 1)
[d-----------------------------------
A-----------------------------------
F-5--4------------------------------
C-5--4--4--3------------------------
G-3--2--4--3------------------------]
[D-------2--1------------------------](Distortion)
(Guitar 2)
[d--8--7-----------------------------
A--------7--6-----------------------
F-----------------------------------
C-----------------------------------
G-----------------------------------]
[D-----------------------------------](Distortion)
(This Is the little muted riff before the Outro)
(Guitars 1 and 2)
[d-12-------10--12--7----------------
A-----12-------------10-------------
F-----------------------------------
C-----------------------------------
G-----------------------------------]
[D-----------------------------------](clean)
p.m ~ ~ ~ ~ ~ ~ ~ ~ ~ ~ ~ ~ ~ ~ ~ ~

-

TUNING: A, D, G, C, F, A, D

Intro/Verse:	[D--------------------------------------------------------------
A------8----------8------------------8----------8--------------
F---11---11----11---11---11---11--11---11----11---11---11---11-
C-9---------9----------9----9----8--------8----------8----8----
G--------------------------------------------------------------
D--------------------------------------------------------------
A--------------------------------------------------------------

Pre-Chorus:	D---------
A---------
F---------
C---7-----
G-2-7-3-8-
D-2-5-3-8-
A-0---1-6-

Chorus:		D----------------
A-13-12-------11-
F-------11-10----
C-10-9--------8--
G--------9--8----
D----------------
A----------------

Bridge:		D----12----12----------------12-
A-------12----12----12----12----
F-14-------------14----14-------
C-------------------------------
G-------------------------------
D-------------------------------
A-------------------------------]
Добавлено: 08.01.2014
Другие материалы по этой песне:

Страница создана 03.03.2012
http://primanota.ru/korn/make-believe-chords.htm
Привет, Гость.
Предлагаем пройти революционный курс по гитаре.
Подарок от PrimaNota.Ru, забирай!