PrimaNota.ru - самый крупный в мире бесплатный архив песенных текстов, аккордов, табулатур и нот


Korn - Love And Meth - текст песни, таба, видео

Регистрация Запомнить меня
Войти через:  Facebook Google Twitter Vk Yandex Mail.ru

Korn - Love And Meth - текст песни, таба, видео

Печатать
Просмотров: 576
-------------------------------------------------------------------------------
                             LOVE AND METH - Korn
-------------------------------------------------------------------------------
Tabbed by: FRr3AkOnALEaSh
E-mail: smokin_05@hotmail.com

Tuning: A Standard (7 String) A D G C F a d

~ - Hold Note
/ - Slide-up


Riff 1 (Intro/Outro)
d|--------------------------------|
a|--------------------------------|
F|--------------------------------|
C|--------------------------------|
G|--------------------------------|
D|--------------------------------|
A|--8-0-8-0-8-0~--8-0-8-0-8-0-1/--| <- Slide up to the 8th fret that starts riff 2

Riff 2 (Intro/Outro)
d|--------------------------------|
a|--------------------------------|
F|--------------------------------|
C|--------------------------------|
G|----------------------------9~--|
D|----------------------------8~--|
A|--8-0-8-0-8-0~--8-0-8-0-8-0-----|

Riff 3 (Verse)
d|-----------------------------|
a|-----------------------------|
F|-----------------------------|
C|-----------------------------|
G|-----------------------------|
D|--5---5---5---------5---5----|
A|----2---2---2--2--2---2---2--|

Riff 4 (Verse/Pre-Chorus)
d|---------------------------|
a|---------------------------|
F|---------------------------|
C|---------------------------|
G|---------------------------|
D|---------------------------|
A|--8-0-8-0-8-0--0-8-0-8-0---|

Riff 5 (Verse/Pre-Chorus)
d|--------------------------------|
a|--------------------------------|
F|--------------------------------|
C|--------------------------------|
G|--------------------------------|
D|--------------------------------|
A|--8-0-8-0-8-0--0-8-0-8-0--0-1/--|

Riff 6 (Chorus) Guitar-1
d|---------------------|
a|---------------------|
F|---------------------|
C|---------------------|
G|------6~-7~--4~------|
D|--4~--4~-5~--2~--5~--|
A|--2~-------------3~--|
                                                       \
Riff 7 (Chorus) Guitar-2                                | PLAYED TOGETHER
d|---------------------------------------------------| /
a|---------------------------------------------------|
F|---------------------------------------------------|
C|--11-11-11-11-11-11-11-11-11-11-11-11-11-11-11-11--|
G|---------------------------------------------------|
D|---------------------------------------------------|
A|---------------------------------------------------|x2

Riff 8 (Chorus) Guitar-2
d|---------------------------------------------------|
a|---------------------------------------------------|
F|---------------------------------------------------|
C|--16-16-16-16-16-16-16-16-16-16-16-16-16-16-16-16--|
G|---------------------------------------------------|
D|---------------------------------------------------|
A|---------------------------------------------------|

Riff 9 (Chorus) Guitar-2
d|---------------------------------------------------|
a|---------------------------------------------------|
F|---------------------------------------------------|
C|--18-18-18-18-18-18-18-18-18-18-18-18-18-18-18-18--|
G|---------------------------------------------------|
D|---------------------------------------------------|
A|---------------------------------------------------|

Riff 9 (Chorus) Guitar-2
d|---------------------------------------------------|
a|---------------------------------------------------|
F|---------------------------------------------------|
C|--18-18-18-18-18-18-18-18-16-16-16-16-16-16-16-16--|
G|---------------------------------------------------|
D|---------------------------------------------------|
A|---------------------------------------------------|

Riff 10 (Bridge)
d|---------------------------------------------------|
a|---------------------------------------------------|
F|---------------------------------------------------|
C|--18-18-18-18-18-18-18-18-18-18-18-18-18-18-18-18--|
G|---------------------------------------------------|
D|---------------------------------------------------|
A|---------------------------------------------------|

Riff 11 (Bridge)
d|---------------------------------------------------|
a|---------------------------------------------------|
F|---------------------------------------------------|
C|--19-19-19-19-19-19-16-16-16-16-16-16-16-16-16-16--|
G|---------------------------------------------------|
D|---------------------------------------------------|
A|---------------------------------------------------|

Riff 12 (Bridge)
d|-------------------------------|
a|-------------------------------|
F|-------------------------------|
C|-------------------------------|
G|-------------------------------|
D|--5---5---5---5----------------|
A|----2---2---2---2--2-2--3-0-2--|

Riff 13 (Bridge)
d|-------------------------------|
a|-------------------------------|
F|-------------------------------|
C|-------------------------------|
G|-------------------------------|
D|--5---5---5---5----------------|
A|----2---2---2---2--2-2--3-0-5--|

Riff 14 (Pre-Chorus)
d|---------------------------|
a|---------------------------|
F|---------------------------|
C|--11-11-11-11-11-11-11-11--|
G|---------------------------|
D|---------------------------|
A|---------------------------|

-------------------------------------------------------

Hope you enjoyed this tab. If you have any questions,
leave a comment. If you think this tab is accurate,
don't forget to give a good rating and leave any 
corrections in the comments.
Добавлено: 16.01.2014
Другие материалы по этой песне:

Страница создана 23.08.2013
http://primanota.ru/korn/love-and-meth-chords.htm
Привет, Гость.
Предлагаем пройти революционный курс по гитаре.
Подарок от PrimaNota.Ru, забирай!