PrimaNota.ru - самый крупный в мире бесплатный архив песенных текстов, аккордов, табулатур и нот


Korn - Let The Guilt Go - текст песни, таба, бас-таба, видео

Регистрация Запомнить меня
Войти через:  Facebook Google Twitter Vk Yandex Mail.ru

Korn - Let The Guilt Go - текст песни, таба, бас-таба, видео

Печатать
Просмотров: 295
Korn - Korn III: Remember Who You Are - Let The Guilt Go

Tabbed By: FRr3AkOnALEaSh (smokin_05@hotmail.com)
Tuning: 7 String Tuned Low to High (A D G C F a d)

Vocal: Jonathan Houseman Davis 'Hiv'
Guitar: James Randal Shaffer 'Munky'
Bass: Reginald Arvizu 'Fieldy
Drums: Ray Luzier

Riff 1 (Intro)
D|--------------|
A|--------------|
F|--------------|
C|--------------|
G|--------------|
D|--4444-555\3--|
A|--2222-333\1--| 

Riff 2 (Pre-Chorus)
D|-------------------|
A|-------------------|
F|-------------------|
C|-------------------|
G|-------------------|
D|-------------------|
A|--0h3p0h3p0h3p0h3--|
    . . . . . . . . 
   
Riff 3 (Chorus)
D|---------------------------------------|
A|---------------------------------------|
F|---------------------------------------|
C|---------------------------------------|
G|----5---5---11---11---10---10---4---4--|
D|---------------------------------------|
A|--3---3---9----9----8----8----2---2----|

Riff 4 (Chorus/Verse)Guitar 1
D|------------------|
A|------------------|
F|------------------|
C|------------------|
G|------------------|
D|--44-xx-455-xx-3--|
A|--22-xx-233-xx-1--|

Riff 5 (Chorus/Verse)Guitar 2
D|------------|
A|------------| Wah Effect
F|--66-677-5--|
C|--xx-xxx-x--|
G|--44-455-3--|
D|------------|
A|------------|

Riff 6 (Breakdown)
D|---------------------------------|
A|---------------------------------|
F|---------------------------------|
C|---------------------------------|
G|------8-------7-------5-------5--|
D|------8-------7-------5-------5--|
A|--66-66---55-55---33-33---33-33--|
    .. .    .. .    .. .    .. .    PM

Riff 7 (Outro)
D|---------------|-------------||---------------|-------------|
A|---4--4--4--4--|--4---4---4--||---3--3--3--3--|--3---3---3--|
F|--5--5--5--5---|----5---5----||--4--4--4--4---|----4---4----|
C|---------------|-------------||---------------|-------------|
G|---------------|-------------||---------------|-------------|
D|---------------|-------------||---------------|-------------|
A|---------------|-------------||---------------|-------------|
    .. .. .. ..       .   .        .. .. .. ..       .   .     PM

NOTE: Listen to the song to structure out the different riffs.
Добавлено: 26.04.2012
Другие материалы по этой песне:

Страница создана 23.04.2012
http://primanota.ru/korn/let-the-guilt-go-chords.htm
Привет, Гость.
Предлагаем пройти революционный курс по гитаре.
Подарок от PrimaNota.Ru, забирай!