PrimaNota.ru - самый крупный в мире бесплатный архив песенных текстов, аккордов, табулатур и нот


Korn - Last Legal Drug (Le Petit Mort) - текст песни, таба, видео

Регистрация Запомнить меня
Войти через:  Facebook Google Twitter Vk Yandex Mail.ru

Korn - Last Legal Drug (Le Petit Mort) - текст песни, таба, видео

Печатать
Просмотров: 238
KoRn - Last Legal Drug (Le Petit Mort) - See You On The Other Side (Bonus Disk)

Tabbed by Elvisz (elvisz@kornkids.com)
                 (elvisz84@yahoo.com)

Tuning : 7 String Tuned Low to High (A D G C F a d)

Vocal: Jonathan Houseman Davis 'Hiv'
Guitar: James Randal Shaffer 'Munky'
Bass: Reginald Arvizu 'Fieldy'
Drums: David Silveria

Intro:
d|-------------------------------------------|
a|-------------------------------------------|
F|-------------------------------------------|
C|-------------------------------------------|
G|-------------------------------------------|
D|-------------------------------------------|
A|-0-1-0-0--00-1-0-0--00-1-0-0--00-1-0-0-321-|
   . . . .  .. . . .  .. . . .  .. . . . ...  .palm mute

Fill1:
d|-------|
a|-------|
F|-------|
C|-------|
G|-2-543-|
D|-2-543-|
A|-0-321-|
   . ...   .palm mute

Verse:
d|-------------------------------------------|
a|-------------------------------------------|
F|-------------------------------------------|
C|-------------------------------------------|
G|-2-3-2-2--22-3-2-2--22-3-2-2--22-3-2-2-543-|
D|-2-3-2-2--22-3-2-2--22-3-2-2--22-3-2-2-543-|
A|-0-1-0-0--00-1-0-0--00-1-0-0--00-1-0-0-321-|
   . . . .  .. . . .  .. . . .  .. . . . ...  .palm mute

Pre-Chorus:
d|-------------------------------------------|
a|-------------------------------------------|
F|-------------------------------------------|
C|-------------------------------------------|
G|-2-3-2-2--22-3-2-2--22-3-2-2--22-3-2-2-543-|
D|-2-3-2-2--22-3-2-2--22-3-2-2--22-3-2-2-543-|
A|-0-1-0-0--00-1-0-0--00-1-0-0--00-1-0-0-321-|
   . . . .  .. . . .  .. . . .  .. . . . ...  .palm mute

d|------------------|-----------------------|
a|------------------|-----------------------|
F|-11~~~-9~~~-12~~~-|-11~~~-9~~~-12~~-8~~~~-|
C|------------------|-----------------------|
G|------------------|-----------------------|
D|------------------|-----------------------|
A|------------------|-----------------------|

Chorus:
d|---------------------------|
a|---------------------------|
F|---------------------------|
C|-4~~-6~~-7~~-3~~~----------|
G|-4~~-6~~-7~~-3~~~-5\4(2)\3-|
D|-2~~-4~~-5~~-1~~~-5\4(2)\3-|
A|------------------3\2(2)\1-|

d|--------------|
a|-14~~~-15~~14~|
F|--------------|
C|--------------|
G|--------------|
D|--------------|
A|--------------|

Bridge1:
d|--------------|
a|--------------|
F|-12---14-11~~-|
C|--------------|
G|--------------|
D|--------------|
A|--------------|

Pre-Verse:
d|-------------------------------------------|
a|-------------------------------------------|
F|-------------------------------------------|
C|-------------------------------------------|
G|-2-3-2-2--22-3-2-2--22-3-2-2--22-3-2-2-543-|
D|-2-3-2-2--22-3-2-2--22-3-2-2--22-3-2-2-543-|
A|-0-1-0-0--00-1-0-0--00-1-0-0--00-1-0-0-321-|
   . . . .  .. . . .  .. . . .  .. . . . ...  .palm mute

d|--------------------|
a|--------------------|
F|-11///14-11//14--13-|
C|-xxxxxxx-xxxxxx--xx-|
G|- 9///12- 9//12--11-|
D|--------------------|
A|--------------------|

Verse:
d|-------------------------------------------|
a|-------------------------------------------|
F|-------------------------------------------|
C|-------------------------------------------|
G|-2-3-2-2--22-3-2-2--22-3-2-2--22-3-2-2-543-|
D|-2-3-2-2--22-3-2-2--22-3-2-2--22-3-2-2-543-|
A|-0-1-0-0--00-1-0-0--00-1-0-0--00-1-0-0-321-|
   . . . .  .. . . .  .. . . .  .. . . . ...  .palm mute

d|--------------------|
a|--------------------|
F|-11///14-11//14--13-|
C|-xxxxxxx-xxxxxx--xx-|
G|- 9///12- 9//12--11-|
D|--------------------|
A|--------------------|

Pre-Chorus:
d|-------------------------------------------|
a|-------------------------------------------|
F|-------------------------------------------|
C|-------------------------------------------|
G|-2-3-2-2--22-3-2-2--22-3-2-2--22-3-2-2-543-|
D|-2-3-2-2--22-3-2-2--22-3-2-2--22-3-2-2-543-|
A|-0-1-0-0--00-1-0-0--00-1-0-0--00-1-0-0-321-|
   . . . .  .. . . .  .. . . .  .. . . . ...  .palm mute

d|------------------|-----------------------|
a|------------------|-----------------------|
F|-11~~~-9~~~-12~~~-|-11~~~-9~~~-12~~-8~~~~-|
C|------------------|-----------------------|
G|------------------|-----------------------|
D|------------------|-----------------------|
A|------------------|-----------------------|

Chorus:
d|---------------------------|
a|---------------------------|
F|---------------------------|
C|-4~~-6~~-7~~-3~~~----------|
G|-4~~-6~~-7~~-3~~~-5\4(2)\3-|
D|-2~~-4~~-5~~-1~~~-5\4(2)\3-|
A|------------------3\2(2)\1-|

d|--------------|
a|-14~~~-15~~14~|
F|--------------|
C|--------------|
G|--------------|
D|--------------|
A|--------------|

Bridge2:
d|-----------------------------|
a|-----------------------------|
F|-----------------------------|
C|----11~~----11--------14~~~~-|
G|-9~------9-----9-10~~--------|
D|-----------------------------|
A|-----------------------------| 

Bridge3:
d|-----------------------------|
a|-----------------------------|
F|-----------------------------|
C|----11~~----11--------14~~~~-|
G|-9~------9-----9-10~~--------|
D|-----------------------------|
A|-----------------------------| 

d|----------------------------------|
a|----------------------------------|
F|-11\\9//11~~~~-9//11\\9//11~~~~~~~|
C|-xxxxxxxxx~~~~-xxxxxxxxxxxx~~~~~~-|
G|- 9\\7// 9~~~~-7// 9\\7// 9~~~~~~-|
D|----------------------------------|
A|----------------------------------|

Bridge4:
d|--------------------------------------|
a|--------------------------------------|
F|--------------------------------------|
C|-4~~-~~~~~~6~~~~-7~~-3~~~-------------|
G|-4~~~~~~~~-6~~~~-7~~-3~~~----5\4(4)\3-|
D|-2~~~~~~~~-4~~~~-5~~-1~~~----5\4(4)\3-|
A|-----------------------------3\2(2)\1-|

d|--------------------------------------|
a|--------------------------------------|
F|--11111111--1111------1111---7\6(6)\5-|
C|--xxxxxxxx--xxxx------xxxx---xxxxxxxx-|
G|-- 9 9 9 9-- 9 9------ 9 9---5\4(4)\3-|
D|--------------------------------------|
A|--------------------------------------|

Chorus:
d|---------------------------|
a|---------------------------|
F|---------------------------|
C|-4~~-6~~-7~~-3~~~----------|
G|-4~~-6~~-7~~-3~~~-5\4(2)\3-|
D|-2~~-4~~-5~~-1~~~-5\4(2)\3-|
A|------------------3\2(2)\1-|

d|--------------|
a|-14~~~-15~~14~|
F|--------------|
C|--------------|
G|--------------|
D|--------------|
A|--------------|

Outro:
d|-----------------|
a|-14~14~~~-15~~14~|
F|-----------------|
C|-----------------|
G|-----------------|
D|-----------------|
A|-----------------|

d|- 9~~~~- 9~~~~-|
a|-10~~~~- 9~~~~-|
F|-11~~~~-10~~~~-|
C|-11~~~~-10~~~~-|
G|- 9~~~~- 9~~~~-|
D|---------------|
A|---------------|
Добавлено: 19.03.2012
Другие материалы по этой песне:
  • Аккорды и текст

Страница создана 19.03.2012
http://primanota.ru/korn/last-legal-drug-le-petit-mort-chords.htm
Привет, Гость.
Предлагаем пройти революционный курс по гитаре.
Подарок от PrimaNota.Ru, забирай!