PrimaNota.ru - самый крупный в мире бесплатный архив песенных текстов, аккордов, табулатур и нот


Korn - Everything That I Could Find - аккорды и текст, таба, видео

Регистрация Запомнить меня
Войти через:  Facebook Google Twitter Vk Yandex Mail.ru

Korn - Everything That I Could Find - аккорды и текст, таба, видео

Печатать
Просмотров: 135
Everything That I Could Find
Korn
SOLO:		[E---------------------------------
B---------------------------------
G---------------0-----------------
D-0-0-2-2-------------3-3-2-2-----
A---------3-3-3---0-0---------0-0-
E---------------------------------

E---------------------------------
B---------------------------------
G---------------0-----------------
D-0-0-2-2-------------3-3-2-2-2---
A---------3-3-3---0-0-----------0-
E---------------------------------]

Coлo в тoй жe тoнaльнocти, чтo и y Korn.
Добавлено: 16.02.2014
Другие материалы по этой песне:
  • Аккорды и текст

Страница создана 05.03.2012
http://primanota.ru/korn/everything-that-i-could-find-chords.htm
Привет, Гость.
Предлагаем пройти революционный курс по гитаре.
Подарок от PrimaNota.Ru, забирай!