PrimaNota.ru - самый крупный в мире бесплатный архив песенных текстов, аккордов, табулатур и нот


Korn - Do What They Say - текст песни, таба, видео

Регистрация Запомнить меня
Войти через:  Facebook Google Twitter Vk Yandex Mail.ru

Korn - Do What They Say - текст песни, таба, видео

Печатать
Просмотров: 165
Авторы: Atticus Ross, Zac Baird, The Matrix, Korn, Leopold Ross

KoRn - Do What They Say - Untitled

Tabbed by Elvisz (elvisz84@yahoo.com)
Tuning : 7 String Tuned Low to High (A D G C F a d)

Vocal: Jonathan Houseman Davis 'Hiv'
Guitar: James Randal Shaffer 'Munky'
Bass: Reginald Arvizu 'Fieldy'
Drums: Terry Bozzio

Intro:
d|--------------------------|
a|--------------------------|
F|--------------------------|
C|--------------------------|
G|--------------------------|
D|-1/2-0~~~~~-5~~~-0~~~~~~~-|
A|--------------------------|
              .              .palm mute

Verse:
d|--------------------------|
a|--------------------------|
F|--------------------------|
C|--------------------------|
G|--------------------------|
D|-1/2-0~~~~~-5~~~-0~~~~~~~-|
A|--------------------------|
              .              .palm mute

Pre-Chorus:
(guitar1)
d|---------------------|
a|---------------------|
F|---------------------|
C|---------------------|
G|-2~~2-4~~4-5~~5-7~~7-|
D|-0~~0-2~~2-3~~3-5~~5-|
A|---------------------|

(guitar2)
d|-----------------------------------------------|
a|-----------------------------------------------|
F|-----------------------------------------------|
C|-----------------------------------------------|
G|-----7---7-------5---5-------5---5-----55---5/-|
D|-0~~---0---0~2~~---2---2~3~~---3---3-5----5----|
A|-----------------------------------------------|

(guitar3)
d|------------------------------------------|
a|------------------------------------------|
F|//17~~~~~~\16//17~~~~~~\16//17~~~~~^^(19)-|
C|------------------------------------------|
G|------------------------------------------|
D|------------------------------------------|
A|------------------------------------------|

Chorus:
(guitar1)
d|--------------------------------------------|
a|--------------------------------------------|
F|--------------------------------------------|
C|-2~2~~-12~~-11~~-5~~--2~2~~-12~~-11~~-5/7\5-|
G|-2~2~~-12~~-11~~-5~~--2~2~~-12~~-11~~-5/7\5-|
D|-0~0~~-10~~- 9~~-3~~--0~0~~-10~~- 9~~-3/5\3-|
A|--------------------------------------------|

d|--------------------------------------------|
a|--------------------------------------------|
F|--------------------------------------------|
C|-2~2~~-12~~-11~~-5~~--2~2~~-12~~-11~~-10~~~-|
G|-2~2~~-12~~-11~~-5~~--2~2~~-12~~-11~~-10~~~-|
D|-0~0~~-10~~- 9~~-3~~--0~0~~-10~~- 9~~- 8~~~-|
A|--------------------------------------------|

(guitar2)
d|------------------------------------------|
a|------------------------------------------|
F|//17~~~~~^^(19)~~16~~~~^^^(19)~~14~~12~~~-|
C|------------------------------------------|
G|------------------------------------------|
D|------------------------------------------|
A|------------------------------------------|

Verse:
d|--------------------------|
a|--------------------------|
F|--------------------------|
C|--------------------------|
G|--------------------------|
D|-1/2-0~~~~~-5~~~-0~~~~~~~-|
A|--------------------------|
              .              .palm mute

Pre-Chorus:
(guitar1)
d|---------------------|
a|---------------------|
F|---------------------|
C|---------------------|
G|-2~~2-4~~4-5~~5-7~~7-|
D|-0~~0-2~~2-3~~3-5~~5-|
A|---------------------|

(guitar2)
d|-----------------------------------------------|
a|-----------------------------------------------|
F|-----------------------------------------------|
C|-----------------------------------------------|
G|-----7---7-------5---5-------5---5-----55---5/-|
D|-0~~---0---0~2~~---2---2~3~~---3---3-5----5----|
A|-----------------------------------------------|

(guitar3)
d|------------------------------------------|
a|------------------------------------------|
F|//17~~~~~~\16//17~~~~~~\16//17~~~~~^^(19)-|
C|------------------------------------------|
G|------------------------------------------|
D|------------------------------------------|
A|------------------------------------------|

Chorus:
(guitar1)
d|--------------------------------------------|
a|--------------------------------------------|
F|--------------------------------------------|
C|-2~2~~-12~~-11~~-5~~--2~2~~-12~~-11~~-5/7\5-|
G|-2~2~~-12~~-11~~-5~~--2~2~~-12~~-11~~-5/7\5-|
D|-0~0~~-10~~- 9~~-3~~--0~0~~-10~~- 9~~-3/5\3-|
A|--------------------------------------------|

d|--------------------------------------------|
a|--------------------------------------------|
F|--------------------------------------------|
C|-2~2~~-12~~-11~~-5~~--2~2~~-12~~-11~~-10~~~-|
G|-2~2~~-12~~-11~~-5~~--2~2~~-12~~-11~~-10~~~-|
D|-0~0~~-10~~- 9~~-3~~--0~0~~-10~~- 9~~- 8~~~-|
A|--------------------------------------------|

(guitar2)
d|------------------------------------------|
a|------------------------------------------|
F|//17~~~~~^^(19)~~16~~~~^^^(19)~~14~~12~~~-|
C|------------------------------------------|
G|------------------------------------------|
D|------------------------------------------|
A|------------------------------------------|

Bridge1:
(guitar1)
d|-----------------------------------------------|
a|-----------------------------------------------|
F|-----------------------------------------------|
C|-12-1212-12-1212-5-55-5-55-9-99-9-99-9-99-9-99-|
G|-----------------------------------------------|
D|-----------------------------------------------|
A|-----------------------------------------------|
      ....    ....   ..   ..   ..  ..    ..   ..  .palm mute

(guitar2)
d|-----------------------------------------------|
a|-----------------------------------------------|
F|-----------------------------------------------|
C|-----------------------------------------------|
G|-----------------------------------------------|
D|-10-1010-10-1010-3-33-3-33-7-77-7-77-7-77-7-77-|
A|-----------------------------------------------|
      ....    ....   ..   ..   ..  ..    ..   ..  .palm mute

Bridge2:
(guitar1)
d|-----------------------|
a|-----------------------|
F|-9999-1010-10-5555-777-|
C|-9999-1010-10-5555-777-|
G|-7777- 8 8- 8-3333-555-|
D|-----------------------|
A|-----------------------|

d|--------------------|
a|--------------------|
F|--------------------|
C|--------------------|
G|-2222-33-3----------|
D|-0000-11-1-3333-555-|
A|-----------1111-333-|

Bridge3:
(guitar1)
d|--------------------------------------------|
a|--------------------------------------------|
F|--------------------------------------------|
C|-2~2~~-12~~-11~~-5~~--2~2~~-12~~-11~~-10~~~-|
G|-2~2~~-12~~-11~~-5~~--2~2~~-12~~-11~~-10~~~-|
D|-0~0~~-10~~- 9~~-3~~--0~0~~-10~~- 9~~- 8~~~-|
A|--------------------------------------------|

(guitar2)
d|------------------------------------------|
a|------------------------------------------|
F|//17~~~~~^^(19)~~16~~~~^^^(19)~~14~~12~~~-|
C|------------------------------------------|
G|------------------------------------------|
D|------------------------------------------|
A|------------------------------------------|

Chorus:
(guitar1)
d|--------------------------------------------|
a|--------------------------------------------|
F|--------------------------------------------|
C|-2~2~~-12~~-11~~-5~~--2~2~~-12~~-11~~-5/7\5-|
G|-2~2~~-12~~-11~~-5~~--2~2~~-12~~-11~~-5/7\5-|
D|-0~0~~-10~~- 9~~-3~~--0~0~~-10~~- 9~~-3/5\3-|
A|--------------------------------------------|

d|--------------------------------------------|
a|--------------------------------------------|
F|--------------------------------------------|
C|-2~2~~-12~~-11~~-5~~--2~2~~-12~~-11~~-10~~~-|
G|-2~2~~-12~~-11~~-5~~--2~2~~-12~~-11~~-10~~~-|
D|-0~0~~-10~~- 9~~-3~~--0~0~~-10~~- 9~~- 8~~~-|
A|--------------------------------------------|

(guitar2)
d|------------------------------------------|
a|------------------------------------------|
F|//17~~~~~^^(19)~~16~~~~^^^(19)~~14~~12~~~-|
C|------------------------------------------|
G|------------------------------------------|
D|------------------------------------------|
A|------------------------------------------|
Добавлено: 23.04.2012
Другие материалы по этой песне:

Страница создана 10.04.2012
http://primanota.ru/korn/do-what-they-say-chords.htm
Привет, Гость.
Предлагаем пройти революционный курс по гитаре.
Подарок от PrimaNota.Ru, забирай!