PrimaNota.ru - самый крупный в мире бесплатный архив песенных текстов, аккордов, табулатур и нот


Korn - Beg For Me - аккорды и текст, таба, бас-таба, видео

Регистрация Запомнить меня
Войти через:  Facebook Google Twitter Vk Yandex Mail.ru

Korn - Beg For Me - аккорды и текст, таба, бас-таба, видео

Печатать
Просмотров: 339
Уроки эстрадного вокала в Санкт-Петербурге
Авторы: Korn

Beg For Me
Korn
TUNING: A, D, G, C, F, A, D

Intro/Verse:	[D-----------------------
A-----------------------
F-----------------------
C-----------------------
G-6---6----6---6--------
D-----------------------
A---3---3----3---3--4/3-

Chorus:		D------------------------------------------------
A------------------------------------------------
F------------------------------------------------
C------------------------------------------------
G---6---6----6---6----------6---6----6---6-------
D------------------------------------------------
A-3---3---3----3---3--/7--3---3---3----3---3--/4-

Bridge:		D---------------
A---------------
F---------------
C---6-----5-----
G-3-6-6-5-5-4-2-
D-3-4-6-5-3-4-2-
A-1---4-3---2---

Outro:		D---------15---------18-
A------16---------16----
F-5-13-------5-13-------
C-5----------5----------
G-3----------3----------
D-----------------------
A-----------------------]

-

If you have a 7 string play it in the same place but on the 7th
string or play on the same note but lower. I labeled each riff
part A B C and D so when you see them you know what to play.

PART A
[e----------------------------------------------
B----------------------------------------------
G------4------------4---------4---------------- } PLAY 8 TIMES
D------4------------4---------4----------------
A-2---2----2---2---2---2----2------------------
E-0--------0---0--------0--------0-2-3---]

PART B
[e----------------------------------
B----------------------------------
G---------------------------------- } PLAY 8 TIMES
D----------------------------------
A--4-------4-------4------4--------
E-----2--------2------2------2-----]

PART A } PLAY 8 TIMES
PART B } PLAY 8 TIMES
PART A } PLAY 8 TIMES

PART C
[e------------------------------------------
B------------------------------------------
G----------4-----2-----------5---2--------- } PLAY 4 TIMES
D----------4-----2-----5----5----2---------
A---2------2-----0----5-----3----0---------
E---0------------------3-------------------]

PART B } PLAY 2 TIMES
PART A } PLAY 16 TIMES

PART D
[e---------0----------0---------0---------0----
B---------5----------5---------5---------5----
G---------3----------3---------3---------3---- } PLAY 2 TIMES
D----2----------2---------2--------2----------
A----2----------2---------2--------2----------
E----0----------0---------0--------0----------]

-

Tuned Down One Half Whole Step ([DGCFAd])
(Intro Pt 1 and Verse)
[d----------------------------------------
A----------------------------------------
F----------------------------------------
C-1--0--1--0--1--0--1--0--0--1--0--4-----
G----------------------------------------
D----------------------------------------]
(With Flanger Effect)
(Intro Pt 2 and Chorus)
(Guitars 1 and 2)
[d----------------------------
A----------------------------
F--8/7/8--7--8/7/8--11-------
C--8/7/8--7--8/7/8--11-------
G--6/5/6--5--6/5/6---9-------
D----------------------------]
(note: [/] = Hammer on)
(With heavy Distortion)
(Bridge: The Part when Jon Goes..."I feel the shame...")
[d--------------------------------
A--------------------------------
F-5--8--8--8--7---12--10--8--5---
C-5--8--8--8--7---12--10--8--5---
G-3--6--6--6--5---10---8--6--3---
D--------------------------------]
(With Heavy Distortion)
(Outro: Where Jon Sings..."Be there, for me")
[d----7-----11--
A----7-----11--
F-5--7--5--11--
C-5-----5------
G-3-----3------
D--------------]
Добавлено: 22.12.2013
Другие материалы по этой песне:

Страница создана 09.04.2012
http://primanota.ru/korn/beg-for-me-chords.htm
Привет, Гость.
Предлагаем пройти революционный курс по гитаре.
Подарок от PrimaNota.Ru, забирай!