PrimaNota.ru - самый крупный в мире бесплатный архив песенных текстов, аккордов, табулатур и нот


Коридор - Ветра (ft. Алексей Костюшкин) - аккорды и текст, видео

Регистрация Запомнить меня
Войти через:  Facebook Google Twitter Vk Yandex Mail.ru

Коридор - Ветра (ft. Алексей Костюшкин) - аккорды и текст, видео

Печатать
Просмотров: 130
Ветра (ft. Алексей Костюшкин)
Коридор
Intro: 
---0--5--3--0-------2--5--8--2-----0--5--3---0------0--5--3---0--
-0---------4---0--4---------------0----------4---1--0---------4--
-----------------------------------------------------------------
----------------------------------------------------------------- 
-----------------------------------------------------------------
-----------------------------------------------------------------

----2--5--8--2----0--5--3---0--7-
--0--4-------------0----------4--
---------------------------------
---------------------------------
---------------------------------
---------------------------------

Em  F#dim
Я иду по звездам, я роняю мысли, 
Em  F#dim
Возвращаться поздно, отступать нет смысла, 
Am  Am  B7  Am  Am  B7 
Знаю-знаю-знаю, где твоя дорога, 
Ляжешь ближе к ночи в мягкую кроватку, 
Закрываешь очи, засыпаешь сладко, 
Знаешь-знаешь-знаешь, в чем моя ошибка 

Непогода злится, трубы воют медно, 
Сон не достучится, бедный-бедный-бедный, 
Мог бы стать цветным, мог бы стать пушистым, 
Огоньки салюта, угольки асфальта, 
Брызги Абсолюта, сахарная вата, 
Помнишь, как когда-то огоньки на речке... 

Em   B7
Ветра, которые мы потеряли, умрут в ночи, 
F#dim  B7  Em
Ветра, которые мы проиграли в борьбе за чин, 
Em  B7
Ветра, которые мы променяли на в кайф пожить, 
F#dim  B7  Em  B7  F#dim  E  Am 
Ветра, которые были частью души, 
B7 Em 
Неотъемлемой частью души 

Вновь рассвета танец доведет до колик, 
Полдень-иностранец, вечер-алкоголик, 
Вижу-вижу-вижу, но помочь не умею, 
А бессмертье душит, а бессмертье гложет, 
Скомканные души на весы положит, 
Помнишь-помнишь-помнишь тот момент, когда глаза погасли... 

Ветра, которые мы потеряли, умрут в ночи, 
Ветра, которые мы проиграли в борьбе за чин, 
Ветра, которые мы променяли на вечную жизнь, 
Ветра, которые были частью души, 
Неотъемлемой частью души 

Я иду по звездам, я роняю мысли, 
Возвращаться поздно, отступать нет смысла, 
Am  Am  B7  Am  Am  B7  Em
Помнишь-помнишь-помнишь тот момент, когда глаза погасли... 
Добавлено: 12.03.2016
Другие материалы по этой песне:
  • Аккорды и текст

Страница создана 12.03.2016
http://primanota.ru/koridor/vetra-ft-aleksei-kostyushkin-chords.htm
Привет, Гость.
Предлагаем пройти революционный курс по гитаре.
Подарок от PrimaNota.Ru, забирай!