PrimaNota.ru - самый крупный в мире бесплатный архив песенных текстов, аккордов, табулатур и нот


Kopecky Family Band - Heartbeat - таба, бас-таба, видео

Регистрация Запомнить меня
Войти через:  Facebook Google Twitter Vk Yandex Mail.ru

Kopecky Family Band - Heartbeat - таба, бас-таба, видео

Печатать
Просмотров: 108
off of the Album, Kids Raising Kids

this tab is more of the Acoustic Version so its the two guitar parts put together, its
not completely perfect especially at the Bridge but its accurate
lyrics are at the bottom

*listen to the song and watch the video (in particular this one
http://www.youtube.com/watch?v=iEheTPtiMlw) to see the strumming and rhythm patterns


intro (you can use either one, i usually pic the first because its more bassy)

*palm mute*
|-------------------------------------------------------| x 2
|-------------------------------------------------------|
|-------------------------------------------------------|
|-------------------------------------------------------|
|-------------------------------------------------------|
|--0--3--0--3--3--5--3--5--5--3--0--0--0-0-0------------|

or
|---------------------------------------------------------|x2    (12--|
|---------------------------------------------------------|      (12--|
|---------------------------------------------------------|      (12--|
|-----5----5--5--7--5--7--7--5----------------------------|      (12--|
|--5----5-----------------------7--5--7--7---7------------|      (12--|
|---------------------------------------------------------|      (12--|

Verse 1
|--------------------------------------------------| x 2
|--------------------------------------------------|
|--12--12--12---8------12--12-12--8----------------|
|--12--12--12---9------12--12-12--9----------------|
|--12--12--12---9------12--12-12--9----------------|
|--------------------------------------------------|

|-----------------3-3-3-2-0-----------------------------| x 2
|---------------------------3---------------------------|
|--12--12--12---8--------------12--12-12--8-------------|
|--12--12--12---9--------------12--12-12--9-------------|
|--12--12--12---9--------------12--12-12--9-------------|
|--------------------------------------------0-0-2-2-3--|


chorus
(use your fingers)
|--3--3--3--3----5--5--5--5--0--0--0--0--0------------|x2
|--3--3--3--3----5--5--5--5--0--0--0--0--0------------|
|--4--4--4--4----6--6--6--6--0--0--0--0--0------------|
|--5--5--5--5----7--7--7--7--2--0--2--0--2------------|
|--5--5--5--5----7--7--7--7--2--0--2--0--2------------|
|--3--3--3--3----5--5--5--5--0--0--0--0--0------------|

Verse 2
|-----------------3-3-3-2-0-----------------------------| x 3
|---------------------------3---------------------------|
|--12--12--12---8--------------12--12-12--8-------------|
|--12--12--12---9--------------12--12-12--9-------------|
|--12--12--12---9--------------12--12-12--9-------------|
|--------------------------------------------0-0-2-2-3--|

|-----------------3-3-3-2-0--------------------|
|---------------------------3------------------|
|--12--12--12---8--------------12--12-12--8----|
|--12--12--12---9--------------12--12-12--9----|
|--12--12--12---9--------------12--12-12--9----|
|----------------------------------------------|



chorus
(use your fingers)
|--3--3--3--3----5--5--5--5--0--0--0--0--0-------| x3
|--3--3--3--3----5--5--5--5--0--0--0--0--0-------|
|--4--4--4--4----6--6--6--6--0--0--0--0--0-------|
|--5--5--5--5----7--7--7--7--2--0--2--0--2-------|
|--5--5--5--5----7--7--7--7--2--0--2--0--2-------|
|--3--3--3--3----5--5--5--5--0--0--0--0--0-------|

|--3--3--3--3----5--5--5--5--0--0--0--0--0-0-0-0-0-0-0-0----|
|--3--3--3--3----5--5--5--5--0--0--0--0--0-0-0-0-0-0-0-0----|
|--4--4--4--4----6--6--6--6--0--0--0--0--0-0-0-0-0-0-0-0----|
|--5--5--5--5----7--7--7--7--2--0--2--0--2-2-2-2-2-2-2-2----|
|--5--5--5--5----7--7--7--7--2--0--2--0--2-2-2-2-2-2-2-2----|
|--3--3--3--3----5--5--5--5--0--0--0--0--0-0-0-0-0-0-0-0----|

bridge
|--0--0--5--7--5--7--5--2--3--5--3---| x4
|--0--0--5--7--5--7--5--2--3--5--3---|
|--0--0--5--7--5--7--5--2--3--5--3---|
|--2--5--7--9--7--5--7--4--5--7--5---|
|--2--5--7--9--7--5--7--4--5--7--5---|
|--0--0--5--7--5--7--5--2--3--5--3---|

Back to intro *palm mute* (remember you can use what ever intro you like long as you 
make it consistent)
|-------------------------------------------------------|
|-------------------------------------------------------|
|-------------------------------------------------------|
|-------------------------------------------------------|
|-------------------------------------------------------|
|--0--3--0--3--3--5--3--5--5--3--0--0--0-0-0------------|

chorus
|--3--3--3--3----5--5--5--5--0--0--0--0--0-------| x4
|--3--3--3--3----5--5--5--5--0--0--0--0--0-------|
|--4--4--4--4----6--6--6--6--0--0--0--0--0-------|
|--5--5--5--5----7--7--7--7--2--0--2--0--2-------|
|--5--5--5--5----7--7--7--7--2--0--2--0--2-------|
|--3--3--3--3----5--5--5--5--0--0--0--0--0-------|



And I don't know know, I don't know what I can do for you
You make my heart beat beat a beat, like a drum for you

Everyday it's closer
Don't take it back, no no sir
I'll play my favorite part for you-o-o-o-o-o-o-ooh
I'm in a strange position
Come on and join were i am at
I'll keep the door wide open for you-o-o-o-o-o-o-ooh

And I don't know know, I don't know what I can do for you
You make my heart beat beat a beat, like a drum for you

This is the part we both love, we cover our skin cause it's so cold
How did I find myself here with you-o-o-o-o-o-o-ooh
Granted you play your cards right, baby I swear I won't fight
I like this game we're playing, do you-o-o-o-o-o-o-ooh?

And I don't know know, I don't know what I can do for you
You make my heart beat beat a beat, like a drum for you
And I don't know know, I don't know what I can do for you
You make my heart beat beat a beat, like a drum for you

And I don't know know, I don't know what I can do for you
You make my heart beat beat a beat, like a drum for you
And I don't know know, I don't know what I can do for you
You make my heart beat beat a beat, like a drum for you
Добавлено: 02.08.2013
Другие материалы по этой песне:
  • Аккорды и текст

Страница создана 02.08.2013
http://primanota.ru/kopecky-family-band/heartbeat-chords.htm
Привет, Гость.
Предлагаем пройти революционный курс по гитаре.
Подарок от PrimaNota.Ru, забирай!