PrimaNota.ru - самый крупный в мире бесплатный архив песенных текстов, аккордов, табулатур и нот


Kopecky Family Band - Are You Listening - таба, видео

Регистрация Запомнить меня
Войти через:  Facebook Google Twitter Vk Yandex Mail.ru

Kopecky Family Band - Are You Listening - таба, видео

Печатать
Просмотров: 107
off the Album kids Raising Kids

----------->LOOK AT ALL THE NOTES, VERY HELPFUL<-----------

this is more of an acoustic version so its all the guitar parts put together so its 
about 99% accurate

Listen to the song for rhythm
http://www.youtube.com/watch?v=tWCVPC5o4Mg     (normal)
or
http://www.youtube.com/watch?v=-yjgL9j9394     (acoustic)

*here is the strum pattern, its may be a little hard to get at first but just listen to 
the song and you'll find it*

\/ /\ \/ X  (down, up, down, scrape) (play the first chord 4 times, the other two chords 
play only two times)


intro
 *these are only the chords but look at the strum pattern above or listen to the song to 
know how much you should play them*

 whistle
|--5--3--3---------| x3
|--6--5--3---------|
|--7--5--4---------|
|--7--5--5---------|
|--5--3--5---------|
|--5--3--3---------|

V1
So you're making eyes at me
I do like I did to she
Always tryin to play it cool when in our company

Hold the camera steady hear
Try to keep the focus clear
No one be around whenever you are near
(guy sing first three lines on the switch start the "Oooo. Ahhh" in the background)
|--5--3--3---------| x4
|--6--5--3---------|
|--7--5--4---------|
|--7--5--5---------|
|--5--3--5---------|
|--5--3--3---------|

Chorus
And don't be shy now; my father said if you're honest
No one will complain or ask you are you listening earnest
Gentle as a dove when I say are you serious are you serious

          Honest..  no one.. are you.. Listening..  gentle  as  adove..say
|--5----5------------------------------------------------------------------|
|--6----6--6---------5---------10--------9-----------6-------5---3------6--|
|--7----7--5---------6---------9---------10----------5-------6---2------5--|
|--7----7-7---------7--------11--------11-----------7-------7---4------7---|
|--5----5-8---------7--------12--------11-----------8-------7---5------8---|
|--5----5------------------------------------------------------------------|

   are you.. serious...
|--------------------------|
|--10--------9-------------|
|--6---------9-------------|
|--11--------11------------|
|--7---------12------------|
|--------------------------|

Are you serious?...

Back to intro
whistle
|--5--3--3---------| x2
|--6--5--3---------|
|--7--5--4---------|
|--7--5--5---------|
|--5--3--5---------|
|--5--3--3---------|





V2
Ride it like a tidal wave
Could you make it feel the same
You always make a mess of me but you just let me be

Heavens got a place for me
In my make out history
Im just trying to be alone I've got company
(girl sing first three lines like earlier)
|--5--3--3---------| x4
|--6--5--3---------|
|--7--5--4---------|
|--7--5--5---------|
|--5--3--5---------|
|--5--3--3---------|


Chorus
And don't be shy now; my father said if you're honest
No one will complain or ask you are you listening earnest
Gentle as a dove when I say are you serious are you serious

          Honest..  no one.. are you.. Listening..  gentle  as  adove  say
|--5----5------------------------------------------------------------------|
|--6----6--6---------5---------10--------9-----------6-------5---3------6--|
|--7----7--5---------6---------9---------10----------5-------6---2------5--|
|--7----7-7---------7--------11--------11-----------7-------7---4------7---|
|--5----5-8---------7--------12--------11-----------8-------7---5------8---|
|--5----5------------------------------------------------------------------|

   are you...serious...
|--------------------------| x2
|--10--------9-------------|
|--6---------9-------------|
|--11--------11------------|
|--7---------12------------|
|--------------------------|


Bridge (thump foot until bridge is done)
|--13-13----13-13-13-----13-13-13-----13-13-13------|
|--15-15----15-13-13-----13-12-12-----12-13-13------|
|---------------------------------------------------|
|---------------------------------------------------|
|---------------------------------------------------|
|---------------------------------------------------|

End
Start after one go around with the end |Don't be shy now, shy now      | x3
                                       |Don't be shy now, shy now oh oh|

|--5--3--3---------| x4
|--6--5--3---------|
|--7--5--4---------|
|--7--5--5---------|
|--5--3--5---------|
|--5--3--3---------|
Добавлено: 05.07.2013
Другие материалы по этой песне:
  • Аккорды и текст

Страница создана 05.07.2013
http://primanota.ru/kopecky-family-band/are-you-listening-chords.htm
Привет, Гость.
Предлагаем пройти революционный курс по гитаре.
Подарок от PrimaNota.Ru, забирай!