PrimaNota.ru - самый крупный в мире бесплатный архив песенных текстов, аккордов, табулатур и нот


Kool The Gang - Steppin Out - бас-таба, видео

Регистрация Запомнить меня
Войти через:  Facebook Google Twitter Vk Yandex Mail.ru

Kool The Gang - Steppin Out - бас-таба, видео

Печатать
Просмотров: 63
Steppin Out
Taken from their Album Something Special this track by Kool and The Gang
was released as a single in 1982 reaching number 12 in the UK
Bass performance by Robert Kool Bell
Tab by bass50611.  Straight forward song that just goes round and
round.  Listen for the changes into and out of the bridge.
Any comments its bass254@btinternet.com

Intro:
G|------------|----------|
D|-FIRST PART-|----------|
A|-BRASS ONLY-|-555---5\-|
E|------------|----------|

Riff 1:
G|------------|
D|------------|
A|-3-3-33-1-3-|
E|------------|

Riff 2:
G|------------|
D|------------|
A|------------|
E|-1-1-11-0-1-|

Riff 3:
G|-------------|
D|-------------|
A|-1-111-------|
E|-------3-3-3-|

Riff 4 (Bridge):
G|-------------------------|
D|-------------------------|
A|-------------------------|
E|-1-1-11-0-1---6-6-66-4-6-|

Playing Sequence
Intro: riff 1 x6, riff 2 x1, riff 3 x1.
Verse: same as intro
Chorus: Riff 1 x2, riff 2 x1, riff3 x1.
Repeat Verse:
Bridge: riff 1 x4, riff 4 x3, riff 2 x1, riff 3 x1
Repeat Verse:
Pre- Interlude: riff 1 x4
Interlude: riff 1 x6, riff 2 x1, riff 3 x1.

AND SO ON. THE SONG JUST REPEATS ITSELF
Добавлено: 15.02.2016
Другие материалы по этой песне:
  • Аккорды и текст

Страница создана 15.02.2016
http://primanota.ru/kool-the-gang/steppin-out-chords.htm
Привет, Гость.
Предлагаем пройти революционный курс по гитаре.
Подарок от PrimaNota.Ru, забирай!