PrimaNota.ru - самый крупный в мире бесплатный архив песенных текстов, аккордов, табулатур и нот


Kontrust - Zero - таба, видео

Регистрация Запомнить меня
Войти через:  Facebook Google Twitter Vk Yandex Mail.ru

Kontrust - Zero - таба, видео

Печатать
Просмотров: 363
Made By Quinten !!

For more information mail me: quinten_johan55@hotmail.com

PM - palm mute where the stars are
/  - slide up
\  - slide down
~  - Let ring
^  - play that 1x in the Verse/chorus

intro: 6x

E-------------| -----------| --------------| --------------|
B-------------| -----------| --------------| --------------|
G-----7-7-----| -----------| ---10--10-----| --------------|
D------7-7----| ----8-8----| -----10--10---| ---10--10-----|
A---5---------| -----8-8---| --8-----------| -----10--10---|
E-------------| --6--------| --------------| --8-----------|


Verse: 2x

E-------------------| -----------------------|
B-------------------| -----------------------|
G-------------------| -----------------------|
D---33--3---33--3---| -----55--5---55--5-----|
A---33--3---33--3---| -----55--5---55--5-----|
E---11--1---11--1---| -----33--3---33--3-----|
    **      **             **      **  

Pre Chorus: 2x

E--------|------|----------|------|--- -----|------|-------|------------|
B--------|------|----------|------|--- -----|------|-------|------------|
G--------|------|----------|------|--- -----|------|-------|------------|
D--5-55--|--77--|--7/-8-88-|--77--|--5--55--|--88--|--3--3-|--6--5------|
A--5-55--|--55--|--5/-6-66-|--55--|--5--55--|--88--|--3--3-|--6--5------|
E--3-33--|--55--|--5/-6-66-|--55--|--3--33--|--66--|--1--1-|--4--3------|


Intro: 6x
verse: 2x
Pre Chorus:3x



Chorus: 2x

E--------------|------------|-----------|-------|----------|---------------|
B--------------|------------|-----------|-------|----------|---------------|
G--------------|------------|-----------|-------|----------|---------------|
D--8--8--8--8--|---8-8--88--|--1010--7--|--5-7--|--88--88--|--3--3---5-35--|
A--6--6--6--6--|---6-6--66--|--8-8---5--|--3-5--|--66--66--|--3--3---5-35--|
E--8--6--6--6--|---6-6--66--|--8-8---5--|--3-5--|--66--66--|--1--1---3-13--|
   ^  ^  ^  ^

E--------------|
B--------------|
G--------------|
D--7~----------|
A--5~----------|
E--5~----------|
   ^ 


Chorus Last part: 1x

E---------|----------|----------|----------|---------|------------|
B---------|----------|----------|----------|---------|------------|
G---------|----------|----------|----------|---------|------------|
D--8------|--7-------|--10------|--12------|--8------|--7~--------|
A--6--(8x)|--5--(4x)-|--8--(3x)-|--10-(1x)-|--6-(8x)-|--5~--------|
E--6------|--5-------|--8-------|--10------|--6------|--5~--------|

Pre Chorus: 4x 

last power chord is (Pre Chorus)

E----------|
B----------|
G----------|
D---5~-----|
A---5~-----|
E---3~-----|
Добавлено: 08.09.2013
Другие материалы по этой песне:
  • Аккорды и текст

Страница создана 16.06.2013
http://primanota.ru/kontrust/zero-chords.htm
Привет, Гость.
Предлагаем пройти революционный курс по гитаре.
Подарок от PrimaNota.Ru, забирай!