PrimaNota.ru - самый крупный в мире бесплатный архив песенных текстов, аккордов, табулатур и нот


Kontrust - Personal Rotation - таба, видео

Регистрация Запомнить меня
Войти через:  Facebook Google Twitter Vk Yandex Mail.ru

Kontrust - Personal Rotation - таба, видео

Печатать
Просмотров: 79
-kontrust- -personal rotation-
-drop C-

 intro + verse
 C|910-77-----7-77-7|910-77-----7-77-7|78-55-----5-55-5|78-55-----5-55-5|
 G|910-77-----7-77-7|910-77-----7-77-7|78-55-----5-55-5|78-55-----5-55-5|
 C|-----------------|-----------------|----------------|----------------|
 F|-----------------|-----------------|----------------|----------------|
 A|-----------------|-----------------|----------------|----------------|
 D|-----------------|-----------------|----------------|----------------|

 verse
 C|910-77-----7-77-7|910-77-----7-77-7|78-55-----5-55-5|78-55-----5-55-5|
 G|-----------------|-----------------|----------------|----------------|
 C|-----------------|-----------------|----------------|----------------|
 F|-----------------|-----------------|----------------|----------------|
 A|-----------------|-----------------|----------------|----------------|
 D|-----------------|-----------------|----------------|----------------|

 chorus
 C|7---7-55577-7--55|7---7--7-7-77--77|10---10-1010101010-10-1010|12---12-1212121212-12-1212|
 G|7---7-55577-7--55|7---7--7-7-77--77|10---10-1010101010-10-1010|12---12-1212121212-12-1212|
 C|-----------------|-----------------|--------------------------|--------------------------|
 F|-----------------|-----------------|--------------------------|--------------------------|
 A|-----------------|-----------------|--------------------------|--------------------------|
 D|-----------------|-----------------|--------------------------|--------------------------|

 C|7---7-55577-7--55|7---7--7-7-77--77|10---10-1010101010-10-1010|9---9-99999-9-99|
 G|7---7-55577-7--55|7---7--7-7-77--77|10---10-1010101010-10-1010|9---9-99999-9-99|
 C|-----------------|-----------------|--------------------------|----------------|
 F|-----------------|-----------------|--------------------------|----------------|
 A|-----------------|-----------------|--------------------------|----------------|
 D|-----------------|-----------------|--------------------------|----------------|

 intro + verse
 C|910-77-----7-77-7|910-77-----7-77-7|78-55-----5-55-5|78-55-----5-55-5|
 G|910-77-----7-77-7|910-77-----7-77-7|78-55-----5-55-5|78-55-----5-55-5|
 C|-----------------|-----------------|----------------|----------------|
 F|-----------------|-----------------|----------------|----------------|
 A|-----------------|-----------------|----------------|----------------|
 D|-----------------|-----------------|----------------|----------------|

 verse
 C|910-77-----7-77-7|910-77-----7-77-7|78-55-----5-55-5|78-55-----5-55-5|
 G|-----------------|-----------------|----------------|----------------|
 C|-----------------|-----------------|----------------|----------------|
 F|-----------------|-----------------|----------------|----------------|
 A|-----------------|-----------------|----------------|----------------|
 D|-----------------|-----------------|----------------|----------------|

 chorus
 C|7---7-55577-7--55|7---7--7-7-77--77|10---10-1010101010-10-1010|12---12-1212121212-12-1212|
 G|7---7-55577-7--55|7---7--7-7-77--77|10---10-1010101010-10-1010|12---12-1212121212-12-1212|
 C|-----------------|-----------------|--------------------------|--------------------------|
 F|-----------------|-----------------|--------------------------|--------------------------|
 A|-----------------|-----------------|--------------------------|--------------------------|
 D|-----------------|-----------------|--------------------------|--------------------------|

 C|7---7-55577-7--55|7---7--7-7-77--77|10---10-1010101010-10-1010|9---9-99999-9-99|
 G|7---7-55577-7--55|7---7--7-7-77--77|10---10-1010101010-10-1010|9---9-99999-9-99|
 C|-----------------|-----------------|--------------------------|----------------|
 F|-----------------|-----------------|--------------------------|----------------|
 A|-----------------|-----------------|--------------------------|----------------|
 D|-----------------|-----------------|--------------------------|----------------|

 chorus
 C|7---7-55577-7--55|7---7--7-7-77--77|10---10-1010101010-10-1010|12---12-1212121212-12-1212|
 G|7---7-55577-7--55|7---7--7-7-77--77|10---10-1010101010-10-1010|12---12-1212121212-12-1212|
 C|-----------------|-----------------|--------------------------|--------------------------|
 F|-----------------|-----------------|--------------------------|--------------------------|
 A|-----------------|-----------------|--------------------------|--------------------------|
 D|-----------------|-----------------|--------------------------|--------------------------|

 C|7---7-55577-7--55|7---7--7-7-77--77|10---10-1010101010-10-1010|9---9-99999-9-99|
 G|7---7-55577-7--55|7---7--7-7-77--77|10---10-1010101010-10-1010|9---9-99999-9-99|
 C|-----------------|-----------------|--------------------------|----------------|
 F|-----------------|-----------------|--------------------------|----------------|
 A|-----------------|-----------------|--------------------------|----------------|
 D|-----------------|-----------------|--------------------------|----------------|

 bridge
 C|----------------|-----------55-5-|----------------|-----------55---|
 G|----------------|3-3-5-33-5------|----------------|3-3-5-33-5------|
 C|5-5-4-45-0-00-0-|----------------|5-5-4-45-0-00-0-|----------------|
 F|----------------|----------------|----------------|----------------|
 A|----------------|----------------|----------------|----------------|
 D|----------------|----------------|----------------|----------------|

 C|55-55-55-55-5555|55-55-55-55-5555|99999-99-9-99-99|99999-99-9-99-99|
 G|55-55-55-55-5555|55-55-55-55-5555|99999-99-9-99-99|99999-99-9-99-99|
 C|----------------|----------------|----------------|----------------|
 F|----------------|----------------|----------------|----------------|
 A|----------------|----------------|----------------|----------------|
 D|----------------|----------------|----------------|----------------|
PM|.. .. .. .. ....|.. .. .. .. ....|..... .. . .. ..|..... .. . .. ..|

 C|33333-33-3-33-33|33333-33-3-33-33|77777-77-7-77-77|77777-77-7-77-77|
 G|33333-33-3-33-33|33333-33-3-33-33|77777-77-7-77-77|77777-77-7-77-77|
 C|----------------|----------------|----------------|----------------|
 F|----------------|----------------|----------------|----------------|
 A|----------------|----------------|----------------|----------------|
 D|----------------|----------------|----------------|----------------|
PM|..... .. . .. ..|..... .. . .. ..|..... .. . .. ..|..... .. . .. ..|

 C|9---------------|----------------|5---------------|----------------|
 G|9---------------|----------------|5---------------|----------------|
 C|----------------|----------------|----------------|----------------|
 F|----------6-76-6|----------6-76-6|----------------|----------------|
 A|----------------|----------------|----------------|----------------|
 D|----------------|----------------|----------------|----------------|

 chorus
 C|7---7-55577-7--55|7---7--7-7-77--77|10---10-1010101010-10-1010|12---12-1212121212-12-1212|
 G|7---7-55577-7--55|7---7--7-7-77--77|10---10-1010101010-10-1010|12---12-1212121212-12-1212|
 C|-----------------|-----------------|--------------------------|--------------------------|
 F|-----------------|-----------------|--------------------------|--------------------------|
 A|-----------------|-----------------|--------------------------|--------------------------|
 D|-----------------|-----------------|--------------------------|--------------------------|

 C|7---7-55577-7--55|7---7--7-7-77--77|10---10-1010101010-10-1010|9---9-99999-9-99|
 G|7---7-55577-7--55|7---7--7-7-77--77|10---10-1010101010-10-1010|9---9-99999-9-99|
 C|-----------------|-----------------|--------------------------|----------------|
 F|-----------------|-----------------|--------------------------|----------------|
 A|-----------------|-----------------|--------------------------|----------------|
 D|-----------------|-----------------|--------------------------|----------------|

 C|10---10-1010101010-10-1010|12---12-1212121212-12-1212|910-77-----------|
 G|10---10-1010101010-10-1010|12---12-1212121212-12-1212|910-77-----------|
 C|--------------------------|--------------------------|-----------------|
 F|--------------------------|--------------------------|-----------------|
 A|--------------------------|--------------------------|-----------------|
 D|--------------------------|--------------------------|-----------------|
Добавлено: 26.07.2013
Другие материалы по этой песне:
  • Аккорды и текст

Страница создана 26.07.2013
http://primanota.ru/kontrust/personal-rotation-chords.htm
Привет, Гость.
Предлагаем пройти революционный курс по гитаре.
Подарок от PrimaNota.Ru, забирай!