PrimaNota.ru - самый крупный в мире бесплатный архив песенных текстов, аккордов, табулатур и нот


Kontrust - On The Run - таба, видео

Регистрация Запомнить меня
Войти через:  Facebook Google Twitter Vk Yandex Mail.ru

Kontrust - On The Run - таба, видео

Печатать
Просмотров: 111
-kontrust- -on the run-
-drop C-

tab by Jasper

 intro (clean)
 C|-------------------|-------------------|------------------|
 G|9-9-9 10-10-1010-10|9-9-9 10-10-1010-10|7-7-78 -8 -8 8 -8 |
 C|11111112-12-1212-12|11111112-12-1212-12|9-9-910-10-1010-10|
 F|11111112-12-1212-12|11111112-12-1212-12|9-9-910-10-1010-10|
 A|-------------------|-------------------|------------------|
 D|-------------------|-------------------|------------------|
 
 (dist) guitar 1
 C|00-0-000-0-000-0-|003-001-|00-0-000-0-000-0-|001-001-|
 G|00-0-000-0-000-0-|003-001-|00-0-000-0-000-0-|001-001-|
 C|-----------------|--------|-----------------|--------|
 F|-----------------|--------|-----------------|--------|
 A|-----------------|--------|-----------------|--------|
 D|-----------------|--------|-----------------|--------|

 C|00-0-000-0-000-0-|003-001-|00-0-000-0-000-0-|001-001-|
 G|00-0-000-0-000-0-|003-001-|00-0-000-0-000-0-|001-001-|
 C|-----------------|--------|-----------------|--------|
 F|-----------------|--------|-----------------|--------|
 A|-----------------|--------|-----------------|--------|
 D|-----------------|--------|-----------------|--------|

 (dist) guitar 2
 C|00-0-000-0-000-0|003-001-|00-0-000-0-000-0|001-001-|
 G|00-0-000-0-000-0|003-001-|00-0-000-0-000-0|001-001-|
 C|----------------|--------|----------------|--------|
 F|----------------|--------|----------------|--------|
 A|----------------|--------|----------------|--------|
 D|----------------|--------|----------------|--------|

 C|----------------|--------|----------------|--------|
 G|----------------|--------|----------------|--------|
 C|----------------|--------|----------------|--------|
 F|----------------|--------|----------------|--------|
 A|4333433343334333|336-334-|4333433343334333|334-334-|
 D|----------------|--------|----------------|--------|

 verse (bass)
 C|0-0-0012121212\5-55333|0-0-0012121212\5-55333|0-0-0012121212\5-55333|0-0-0012121212\5-55333|
 G|----------------------|----------------------|----------------------|----------------------|
 C|----------------------|----------------------|----------------------|----------------------|
 F|----------------------|----------------------|----------------------|----------------------|

 pre-chorus (clean)                                           (dist)
 C|-------------------|-------------------|------------------|00-0-000-0-000-0|
 G|9-9-9 10-10-1010-10|9-9-9 10-10-1010-10|7-7-78 -8 -8 8 -8 |00-0-000-0-000-0|
 C|11111112-12-1212-12|11111112-12-1212-12|9-9-910-10-1010-10|----------------|
 F|11111112-12-1212-12|11111112-12-1212-12|9-9-910-10-1010-10|----------------|
 A|-------------------|-------------------|------------------|----------------|
 D|-------------------|-------------------|------------------|----------------|

 chorus (dist)
 C|5-------7--------|5-------7--------|4-------5--------|00-0-000-0-000-0|
 G|5-------7--------|5-------7--------|4-------5--------|00-0-000-0-000-0|
 C|-----------------|-----------------|-----------------|----------------|
 F|-----------------|-----------------|-----------------|----------------|
 A|-----------------|-----------------|-----------------|----------------|
 D|-----------------|-----------------|-----------------|----------------|

 C|5-------7--------|5-------7--------|4-------5--------|
 G|5-------7--------|5-------7--------|4-------5--------|
 C|-----------------|-----------------|-----------------|
 F|-----------------|-----------------|-----------------|
 A|-----------------|-----------------|-----------------|
 D|-----------------|-----------------|-----------------|

 (dist) guitar 1
 C|00-0-000-0-000-0|003-001-|00-0-000-0-000-0|001-001-|
 G|00-0-000-0-000-0|003-001-|00-0-000-0-000-0|001-001-|
 C|----------------|--------|----------------|--------|
 F|----------------|--------|----------------|--------|
 A|----------------|--------|----------------|--------|
 D|----------------|--------|----------------|--------|

 (dist) guitar 2
 C|----------------|--------|----------------|--------|
 G|----------------|--------|----------------|--------|
 C|----------------|--------|----------------|--------|
 F|----------------|--------|----------------|--------|
 A|4333433343334333|336-334-|4333433343334333|334-334-|
 D|----------------|--------|----------------|--------|

 verse (bass)
 C|0-0-0012121212\5-55333|0-0-0012121212\5-55333|0-0-0012121212\5-55333|0-0-0012121212\5-55333|
 G|----------------------|----------------------|----------------------|----------------------|
 C|----------------------|----------------------|----------------------|----------------------|
 F|----------------------|----------------------|----------------------|----------------------|

 pre-chorus (clean)                                           (dist)
 C|-------------------|-------------------|------------------|00-0-000-0-000-0|
 G|9-9-9 10-10-1010-10|9-9-9 10-10-1010-10|7-7-78 -8 -8 8 -8 |00-0-000-0-000-0|
 C|11111112-12-1212-12|11111112-12-1212-12|9-9-910-10-1010-10|----------------|
 F|11111112-12-1212-12|11111112-12-1212-12|9-9-910-10-1010-10|----------------|
 A|-------------------|-------------------|------------------|----------------|
 D|-------------------|-------------------|------------------|----------------|

 chorus (dist)
 C|5-------7--------|5-------7--------|4-------5--------|00-0-000-0-000-0|
 G|5-------7--------|5-------7--------|4-------5--------|00-0-000-0-000-0|
 C|-----------------|-----------------|-----------------|----------------|
 F|-----------------|-----------------|-----------------|----------------|
 A|-----------------|-----------------|-----------------|----------------|
 D|-----------------|-----------------|-----------------|----------------|

 C|5-------7--------|5-------7--------|4-------5--------|
 G|5-------7--------|5-------7--------|4-------5--------|
 C|-----------------|-----------------|-----------------|
 F|-----------------|-----------------|-----------------|
 A|-----------------|-----------------|-----------------|
 D|-----------------|-----------------|-----------------|

 (dist) guitar 1
 C|00-0-000-0-000-0|003-001-|00-0-000-0-000-0|001-001-|
 G|00-0-000-0-000-0|003-001-|00-0-000-0-000-0|001-001-|
 C|----------------|--------|----------------|--------|
 F|----------------|--------|----------------|--------|
 A|----------------|--------|----------------|--------|
 D|----------------|--------|----------------|--------|

 (dist) guitar 2
 C|----------------|--------|----------------|--------|
 G|----------------|--------|----------------|--------|
 C|----------------|--------|----------------|--------|
 F|----------------|--------|----------------|--------|
 A|4333433343334333|336-334-|4333433343334333|334-334-|
 D|----------------|--------|----------------|--------|

 bridge (dist)
 C|0-------------333|0-------------111|0-------------333|
 G|0-------------333|0-------------111|0-------------333|
 C|-----------------|-----------------|-----------------|
 F|-----------------|-----------------|-----------------|
 A|-----------------|-----------------|-----------------|
 D|-----------------|-----------------|-----------------|

 C|0-0-00--0-00--0-0|0331|0-0-00--0-00--0-0|0-0-|
 G|0-0-00--0-00--0-0|0331|0-0-00--0-00--0-0|0-0-|
 C|-----------------|----|-----------------|----|
 F|-----------------|----|-----------------|----|
 A|-----------------|----|-----------------|----|
 D|-----------------|----|-----------------|----|x2

 pre-chorus (clean)                                           (dist)
 C|-------------------|-------------------|------------------|00-0-000-0-000-0|
 G|9-9-9 10-10-1010-10|9-9-9 10-10-1010-10|7-7-78 -8 -8 8 -8 |00-0-000-0-000-0|
 C|11111112-12-1212-12|11111112-12-1212-12|9-9-910-10-1010-10|----------------|
 F|11111112-12-1212-12|11111112-12-1212-12|9-9-910-10-1010-10|----------------|
 A|-------------------|-------------------|------------------|----------------|
 D|-------------------|-------------------|------------------|----------------|

 chorus (dist)
 C|5-------7--------|5-------7--------|4-------5--------|00-0-000-0-000-0|
 G|5-------7--------|5-------7--------|4-------5--------|00-0-000-0-000-0|
 C|-----------------|-----------------|-----------------|----------------|
 F|-----------------|-----------------|-----------------|----------------|
 A|-----------------|-----------------|-----------------|----------------|
 D|-----------------|-----------------|-----------------|----------------|

 C|5-------7--------|5-------7--------|4-------5--------|
 G|5-------7--------|5-------7--------|4-------5--------|
 C|-----------------|-----------------|-----------------|
 F|-----------------|-----------------|-----------------|
 A|-----------------|-----------------|-----------------|
 D|-----------------|-----------------|-----------------|x2

 (dist) guitar 1
 C|00-0-000-0-000-0|003-001-|00-0-000-0-000-0|001-001-|
 G|00-0-000-0-000-0|003-001-|00-0-000-0-000-0|001-001-|
 C|----------------|--------|----------------|--------|
 F|----------------|--------|----------------|--------|
 A|----------------|--------|----------------|--------|
 D|----------------|--------|----------------|--------|

 (dist) guitar 2
 C|----------------|--------|----------------|--------|
 G|----------------|--------|----------------|--------|
 C|----------------|--------|----------------|--------|
 F|----------------|--------|----------------|--------|
 A|4333433343334333|336-334-|4333433343334333|334-334-|
 D|----------------|--------|----------------|--------|

 outro guitar 1
 C|00-0-000-0-000-0|003-001-|00-0-000-0-000-0|000-01--|
 G|00-0-000-0-000-0|003-001-|00-0-000-0-000-0|000-01--|
 C|----------------|--------|----------------|--------|
 F|----------------|--------|----------------|--------|
 A|----------------|--------|----------------|--------|
 D|----------------|--------|----------------|--------|

      guitar 2
 C|----------------|--------|----------------|--------|
 G|----------------|--------|----------------|--------|
 C|----------------|--------|----------------|--------|
 F|----------------|--------|----------------|--------|
 A|4333433343334333|336-334-|4333433343334333|333334--|
 D|----------------|--------|----------------|--------|
Добавлено: 19.11.2013
Другие материалы по этой песне:
  • Аккорды и текст

Страница создана 19.11.2013
http://primanota.ru/kontrust/on-the-run-chords.htm
Привет, Гость.
Предлагаем пройти революционный курс по гитаре.
Подарок от PrimaNota.Ru, забирай!