PrimaNota.ru - самый крупный в мире бесплатный архив песенных текстов, аккордов, табулатур и нот


Kontrust - Bomba - таба, видео

Регистрация Запомнить меня
Войти через:  Facebook Google Twitter Vk Yandex Mail.ru

Kontrust - Bomba - таба, видео

Печатать
Просмотров: 197
-------------------------------------------------------------------------------
                             Bomba - Kontrust
-------------------------------------------------------------------------------
Tabbed by: Paul
E-mail: skinnypuppy208@yahoo.ca

Tuning: Drop C 


0:08                      X3                         X1              Repeat this 3 times
D|---------------------|---------------------|--------------------------------|
A|---------------------|---------------------|--------------------------------|
F|----7--11-11/12\11---|------5-5---8-8\7----|--------------------------------|
C|----x--x--x--x--x----|------x-x---x-x-x----|--------------------------------|
G|5-5-5--9--9/10\-9----|-3-3--3-3---6-6\5----|--------------------------------|
C|---------------------|---------------------|--------------------------------|



0:55  up and down strumming     I can resist and do you know what?
D|----------------------------|----------------------------------------------|
A|----------------------------|----------------------------------------------|
F|--7-/11\-7--7/5\7-----------|----------------------------------------------|
C|--x--x---x--x-x-x-----------|--------4-4h5p4-------7-4h5p4--------4-4h5p4--|
G|--5-/9\--5--5/3\5-----------|----------------------------------------------|
C|----------------------------|-0-0-0----------0-0-0----------0-0-0----------|
                                 pm              pm             pm



1:07    I close my eyes                                                  
D|---------------------------------------------------------------------------|
A|---------------------------------------------------------------------------|
F|---------------------------------------------------------------------------|
C|---------------------------------------------------------------------------|
G|--4454454--4544775--4454454--44450--\12--4454454--4544775--4454454---------|
C|--4454454--4544775--4454454--44450--\12--4454454--4544775--4454454---------|



BOMBA!!              end not played on third time

D|---------------------|---------------------|--------------------------------|
A|---------------------|---------------------|--------------------------------|
F|----7--11-11/12\11---|------5-5---8-8\7----|--------------------------------|
C|----x--x--x--x--x----|------x-x---x-x-x----|--------------------------------|
G|5-5-5--9--9/10\-9----|-3-3--3-3---6-6\5----|--------------------------------|
C|---------------------|---------------------|--------------------------------|




1:48
D|---------------------------------------------------------------------------|
A|---------------------------------------------------------------------------|
F|---------------------------------------------------------------------------|
C|--------4-4h5p4---------7-4h5p4--------4-4h5p4----------2-2h3p2------------|
G|---------------------------------------------------------------------------|
C|--0-0-0----------0-0-0----------0-0-0-------------0-0-0--------------------|
     pm             pm             pm                pm




D|---------------------------------------------------------------------------|
A|---------------------------------------------------------------------------|
F|---------------------------------------------------------------------------|
C|-------5----------7-4h5p4 --------5-----------2-2h3p2----------------------|
G|-------3--------------------------3----------------------------------------|
C|-0-0-0-----0-0-0-----------0-0-0-------0-0-0-------------------------------|
    pm        pm              pm           pm 


D|---------------------------------------------------------------------------|
A|---------------------------------------------------------------------------|
F|---------------------------------------------------------------------------|
C|--------4-4h5p4---------7-4h5p4--------4-4h5p4-----------------------------|
G|---------------------------------------------------------------------------|
C|--0-0-0----------0-0-0----------0-0-0--------------------------------------|
     pm             pm             pm               



2:13    I close my eyes
D|---------------------------------------------------------------------------|
A|---------------------------------------------------------------------------|
F|---------------------------------------------------------------------------|
C|---------------------------------------------------------------------------|
G|--4454454--4544775--4454454--44450--\12--4454454--4544775--4454454---------|
C|--4454454--4544775--4454454--44450--\12--4454454--4544775--4454454---------|





BOMBA!!              3X                         1X      repeat 3 times then let ring
D|---------------------|---------------------|--------------------------------|
A|---------------------|---------------------|--------------------------------|
F|----7--11-11/12\11---|------5-5---8-8\7----|--------------------------------|
C|----x--x--x--x--x----|------x-x---x-x-x----|---5----------------------------|
G|5-5-5--9--9/10\-9----|-3-3--3-3---6-6\5----|---3----------------------------|
C|---------------------|---------------------|--------------------------------|



3:37  turn volume off and play chord then increase volume slowly
D|---------------------------------------------------------------------------|
A|---------------------------------------------------------------------------|
F|---------------------------------------------------------------------------|
C|---5-----------------------------------------------------------------------|
G|---3-----------------------------------------------------------------------|
C|---------------------------------------------------------------------------|


BOMBA!!                                                 fades out
                    3X                       1X
D|---------------------|---------------------|--------------------------------|
A|---------------------|---------------------|--------------------------------|
F|----7--11-11/12\11---|------5-5---8-8\7----|--------------------------------|
C|----x--x--x--x--x----|------x-x---x-x-x----|--------------------------------|
G|5-5-5--9--9/10\-9----|-3-3--3-3---6-6\5----|--------------------------------|
C|---------------------|---------------------|--------------------------------|

This is 100% correct ive seen them live and this is how the guitarist does it.
Email me for any questions or requests
Thanks and have fun!

************************************

| /   slide up
| \   slide down
| h   hammer-on
| p   pull-off
| ~   vibrato
| +   harmonic
| x   Mute note

************************************
Добавлено: 08.11.2013
Другие материалы по этой песне:
  • Аккорды и текст

Страница создана 08.11.2013
http://primanota.ru/kontrust/bomba-chords.htm
Привет, Гость.
Предлагаем пройти революционный курс по гитаре.
Подарок от PrimaNota.Ru, забирай!