PrimaNota.ru - самый крупный в мире бесплатный архив песенных текстов, аккордов, табулатур и нот


Kommil Foo - Ruimtevaarder - таба, видео

Регистрация Запомнить меня
Войти через:  Facebook Google Twitter Vk Yandex Mail.ru

Kommil Foo - Ruimtevaarder - таба, видео

Печатать
Просмотров: 155
Уроки эстрадного вокала в Санкт-Петербурге
I had been looking for a tab of this beautiful dutch song for a while, but I could only find the chords.
Eventually a friend of mine made a tab. It sounds pretty great.

The verses always follow the same pattern:

3x
D G A D G Em A
1x
G A D Bm G A D


     D           G           A          D
   
e|-----------2--------3--------------0--------2h3p2--|
B|--------3--------------0--------2------------------|
G|-----2-----------0-----------2-----------2---------|
D|--0-----------------------------------0------------|
A|--------------------------0------------------------|
E|--------------3------------------------------------|

     G           Em          A

e|---------------------------------------------------|
B|--------0-----------0------------2h3p2-------------|
G|-----0-----------0-----0------2----------2------2--|
D|--------------------------------------------2------|
A|---------------------------0-----------------------|
E|--3-------3---0------------------------------------|

3x

     G           A            D           Bm

e|--------3--------------0--------2-----------2------|
B|-----------0--------2--------------3-----------3---|
G|-----0-----------2-----------2-----------4---------|
D|--------------------------0------------------------|
A|--------------0-----------------------2------------|
E|--3------------------------------------------------|

     G                        A

e|--------------3-----------------------0------------|
B|--------0--------0-----0--------2--------2-----2---|
G|-----0-----0--------0--------2-----2--------2------|
D|---------------------------------------------------|
A|--------------------------0------------------------|
E|--3------------------------------------------------|


 D           
   
e|--2---|
B|--3---|
G|--2---|
D|--0---|
A|------|
E|------|


Verse 1
        D         G                  A                D
Meester Frank, ik kom waarschijnlijk morgen niet naar school 
       G          Em               A          
En ook overmorgen zal wat moeilijk zijn
       D      G                 A                  D
En evenmin de week die komt, ja zelfs de maand die volgt
   G               Em                          A   
De kans dat ik nog ooit verschijn is eigenlijk klein
      D             G              A           D
't Is niet, meester Frank, omdat u mij zo vaak straft
       G              Em             A
En mij één keer zelfs domkop heeft genoemd
        G                  A                     D             Bm
't Is alleen iets hier van binnen; 't heeft geen zin dat ik ontken
        G         A                             D
Meester Frank, ik voel dat ik een ruimtevaarder ben


Verse 2
Zeg nu zelf, meester Frank, wat ben je in 't Heelal
Met de tafels van vermenigvuldiging
Ook schoonschrift, en blokfluit spelen, woorden met -dt
Dat snapt u toch, dat heeft op Mars geen zin
Het is dus zeker niet, meester Frank, omdat u mij zo vaak straft
En mij voor de hele klas domkop heeft genoemd
Nee, ik moet planeten gaan ontdekken, in de hoop dat daar iets leeft
Meester Frank, het is de plicht die elke ruimtevaarder heeft

Interlude 1
D  G  A  D  G  Em  A  
D  G  A  D  G  Em  A

Verse 3
Doe de groeten, meester Frank, aan de rest van de klas
En zeg dat ik hen nooit vergeten zal
Geef mijn vulpen aan kleine Peter van de laatste bank
Hij blijft m'n vriend, al woon ik in 't Heelal
Zo, meester Frank, alles is zowat gezegd
Vaarwel, en dat het u nog goed mag gaan
En wat die kleinigheid betreft, dat u een domkop in mij ziet
Meester Frank, dat deert een ruimtevaarder niet

Interlude 2
D  G  A  D  G  Em  A  
D  G  A  D  G  Em  A  D

End
       G              A     D                      Bm
Oh, en voor ik het vergeet, Linda van Slagerij van Gool
G  A                                      D
   Komt waarschijnlijk ook niet meer naar school
Добавлено: 06.08.2015
Другие материалы по этой песне:
  • Аккорды и текст

Страница создана 06.08.2015
http://primanota.ru/kommil-foo/ruimtevaarder-chords.htm
Привет, Гость.
Предлагаем пройти революционный курс по гитаре.
Подарок от PrimaNota.Ru, забирай!