PrimaNota.ru - самый крупный в мире бесплатный архив песенных текстов, аккордов, табулатур и нот


Komeda - It's Alright Baby - текст песни, таба, видео

Регистрация Запомнить меня
Войти через:  Facebook Google Twitter Vk Yandex Mail.ru

Komeda - It's Alright Baby - текст песни, таба, видео

Печатать
Просмотров: 137
Komeda
It's Alright, Baby
Transcribed by Reuben Gann (reubengann@hotmail.com)

Lead intro:
------|---------------------|---
------|---------------------|---
------|*------------------*-|---
------|*--12/0------------*-|---
------|--------12/0---------|---
-12/0-|--------------12/0---|---

Intro, Chorus bassline
---------------------------------------------------------------
------------------------------------7-5-7-----5----------------
-7--7-----5-6-7--7------5-5-----5---------7-7----7-------------
------7-7----------7-7------5-5--------------------------------


Verse:
Bassline:
  B          A           E
---------------------------------------------------------------
--9-9-9---9--7-7-7---7---14-14----14---------------------------
--------9----------7-----------14------------------------------
---------------------------------------------------------------
     B
>From p...
             A               E
The one that n...
     B
The lo...
           A                  E
Become the s...
    F#
I'm t...
E             B
Sick of being tired
          F#
Yeah, but sh...
           E              B
Before the f...           pro...

Chorus:
     E                               D                   A
(Woo hoo) It's alright, baby, It's a crazy world, it's a b...
(Woo hoo) It's alright sugar, It's a crazy world, it's a b...
(Woo hoo) It's alright honey, It's a crazy world, it's a b...
     E                           D     A
(Woo hoo) It's alright, it's ok, it is so crazy

Verse 2

     
Добавлено: 11.06.2013
Вам также может быть интересно:
Другие материалы по этой песне:
  • Аккорды и текст

Страница создана 16.06.2012
http://primanota.ru/komeda/its-alright-baby-chords.htm
Привет, Гость.
Предлагаем пройти революционный курс по гитаре.
Подарок от PrimaNota.Ru, забирай!