PrimaNota.ru - самый крупный в мире бесплатный архив песенных текстов, аккордов, табулатур и нот


Komeda - Cul De Sac - таба, видео

Регистрация Запомнить меня
Войти через:  Facebook Google Twitter Vk Yandex Mail.ru

Komeda - Cul De Sac - таба, видео

Печатать
Просмотров: 104
Komeda
Cul de Sac
Transcribed by Reuben Gann (reubengann@hotmail.com)
Key of A

Intro:

Guitar:
E |-15-15-14-|-14-12-|-12-10-10-|----10-12-|
B |----------|-------|----------|-11-------|
G |----------|-------|----------|----------|
D |----------|-------|----------|----------|
A |----------|-------|----------|----------|
E |----------|-------|----------|----------|

Keys:



Verse form (guitar):
    E6                            E9
E |-------0-----|--------0-----|--------2-----|--------2-----|
B |-----2---2---|------2---2---|------0---0---|------0---0---|
G |---1-------1-|----1-------1-|----1-------1-|----1-------1-|
D |-------------|--------------|--------------|--------------|
A |-------------|--------------|--2-----------|--2-----------|
E |-0-----------|-0------------|--------------|--------------|
    E6                            E9
E |-------0-----|--------0-----|--------2-----|--------2-----|
B |-----2---2---|------2---2---|------0---0---|------0---0---|
G |---1-------1-|----1-------1-|----1-------1-|----1-------1-|
D |-------------|--------------|--------------|--------------|
A |-------------|--------------|--2-----------|--2-----------|
E |-0-----------|-0------------|--------------|--------------|
    G#m9          G#m           D
E |-------6-----|-------4-----|-------2-----|-------0-----|
B |-----4---4---|-----4---4---|-----3---3---|-----3---3---|
G |---4-------4-|---4-------4-|---0-------0-|---0-------0-|
D |-6-----------|-6-----------|-0-----------|-0-----------|
A |-------------|-------------|-------------|-------------|
E |-------------|-------------|-------------|-------------|
    G#m9          G#m           D
E |-------6-----|-------4-----|-------2-----|-------0-----|
B |-----4---4---|-----4---4---|-----3---3---|-----3---3---|
G |---4-------4-|---4-------4-|---0-------0-|---0-------0-|
D |-6-----------|-6-----------|-0-----------|-0-----------|
A |-------------|-------------|-------------|-------------|
E |-------------|-------------|-------------|-------------|

Bass:
       E6         E9           E6
G ---|-----------|-----------|-------------|
D ---|-----------|-----------|-------------|
A -2-|---7-5-----|-----------|-----7-5-----|
E ---|-0-----7-0-|-7---5-5-7-|-0-------7-5-|
   E9             G#m9 G#m
G ---------------|---|---------
D ---------------|---|-6-4-----
A ---------------|---|-----6-4-
E -7---7-5-5-7-7-|-4-|---------
    D            G#m9 G#m      D
G |-------------|---|---------|---|---------|
D |-------------|---|-6-4-----|---|-----7-7-|
A |-5---5-5-----|---|-----6-4-|-5-|-5-5-----|
E |---------5-5-|-4-|---------|---|---------|

Verse 1:
E6     E9                               E6
If you take .....                       take
         E9           G#m9 G#m
you will surely arrive where ...
            D                            G#m9 G#m  D
The soul is l...                         so...

Verse 2:

Chorus:
A                        F#m
Plato mumbo jumbo, mockery
                            D       D+5
.....                       any...
A                           
Em
F#m                           D         D+5
Maybe, ...

*("house" replaced by "heart" on last time through)

Verse 3:

The end sounds like it's over Em and the riff is played
continuously.

Chords:
   E6  E9  G#m9 G#m   A  C#m  D  D+5
E |-0---2---6----4----0---4---2---2-
B |-2---0---4----4----2---5---3---3-
G |-1---1---4----4----2---6---2---3-
D |-2---0---6----6----2---6---0---4-
A |-2---2---6----6----0---4---------
E |-0-------4----4--------4---------


     
Добавлено: 10.08.2013
Другие материалы по этой песне:
  • Аккорды и текст

Страница создана 10.08.2013
http://primanota.ru/komeda/cul-de-sac-chords.htm
Привет, Гость.
Предлагаем пройти революционный курс по гитаре.
Подарок от PrimaNota.Ru, забирай!