PrimaNota.ru - самый крупный в мире бесплатный архив песенных текстов, аккордов, табулатур и нот


Koko Taylor - Hey Bartender - таба, видео

Регистрация Запомнить меня
Войти через:  Facebook Google Twitter Vk Yandex Mail.ru

Koko Taylor - Hey Bartender - таба, видео

Печатать
Просмотров: 127
 _______________
|               |
| KOKO TAYLOR   |
| Hey Bartender |
|_______________|







Guitar

     H        E  T S. Q       E  T H.           S.    H        E  T S. Q     
E||------------------------|-----------------------|------------------------|
B||------------------------|-----------------------|-------------------1----|
G||-------------------0----|--2--L-----------------|----------------2-------|
D||----------------2-------|-----------------------|------------------------|
A||------------------------|-----------------------|------------------------|
E||----------------0--3----|-----------------------|------------------------|


                                      |--3-|                               
  E  T H.           S.    Q.     T S. Q    H           E  H.           E   
-----------------------|--------------0-------------|---------------------|
-----------------------|-------------------1--------|---------------------|
--2--L-----------------|-----------2----------------|--2------------------|
-----------------------|----------------------------|---------------------|
-----------------------|----------------------------|---------------------|
-----------------------|----------------------------|---------------------|


                3       3       3                 3                      
  H        E  T E  Q    X    S. T H.           E  X    W                 
--------------------------|-------------------------|-------------------|
--------------------------|-------------------------|-------------------|
-------------------0----2-|--L--L-------------------|-------------------|
----------------2---------|-------------------------|-------------------|
--------------------------|-------------------------|-------------------|
--------------------------|-------------------------|-------------------|


  3                             3                                     3  
  T E.  T E  T S. E  T T S Q    X    E  T. X S E  T S. E  T T S E.  T S  
----------------------------------|-------------------------------------|
----------0--L-----------0--------|------------0--L-----------0---------|
----2---L---------2--L------------|----------2---------2--L-------------|
----0-----0-------0------0--------|----------0-0-------0------0-----1-2-|
----------------------------------|---------------------------------0---|
----------------------------------|-------------------------------------|


                                  3                                    3  
  E.  T. X T E  T S E  T T S Q    X    E  T. X S E  S T T E  S S E.  S X  
------------------------------------|--------------------------------1-L-|
------------------------------------|--------------------------------2-L-|
------------------------------------|--------------------------------0-L-|
--L---L--L---4--L---2--L---4--------|----------2-4--------2----4-----1-L-|
-------------0------0------0--------|----------0-0----0---0----0---------|
------------------------------------|------------------------------------|


  3                       3    3                     3  
  T E  T E  H        E  S X    T T H.           S E  X  
--L-2----2--------------4---|----5-0------------L------|
--L-3----3--------------4-L-|--L---4-------------------|
--L-1----1--------------4-L-|--L-5---------------------|
--L-2----2--------------3-L-|--L-4---------------------|
----------------------------|--------------------------|
----------------------------|--------------------------|


                                    3    3        5                             
  E  T. X T Q    T T E  T T E.  T S X    X E  T S X E  T T E.  T S T E.  T T X  
----------5----------5----5-----------|----5--L--------------------------------|
----------5--------5------5-----------|----5--L--------------------------------|
--------------------------------------|-------------5--L-4-------------------2-|
----------------------------------7-L-|--L------7----------------2---4---L-----|
--------------------------------------|-----------6--------5-------------------|
--------------------------------------|----------------------------------------|


                                               3      5  
  S X. H.           E  T X    H        E  T. X E  E.  S  
---------------------------|----------------------------|
---------------------------|----------------------1---L-|
--L-L----------------------|-------------------2--------|
---------------------------|----------------------------|
---------------------------|----------------------------|
---------------------------|----------------------------|


  5                                    5 -----          
  X E  H.           S. X X    H        X Q    Q    S X  
---------------------------|-------------0-------------|
--L------------------------|------------------1----L---|
----2----------------------|---------------------------|
---------------------------|---------------------------|
---------------------------|---------------------------|
---------------------------|---------------------------|


  5                                          3                                
  X E  H.           S. X X    H        E  T. E  Q       X E  H.           E   
---------------------------|-------------------------|-----------------------|
---------------------------|-------------------------|-----------------------|
----2----------------------|--------------------0----|--L-2------------------|
---------------------------|-----------------2-------|-----------------------|
---------------------------|-------------------------|-----------------------|
---------------------------|-------------------------|-----------------------|


                                        3           5  
  W                   X E.  T T E  T S. Q    T Q    S  
-------------------|----------------------------------|
-------------------|------------0--L---------0--------|
-------------------|----2---L-----------2-------------|
-------------------|----0-------0-------0----0--------|
-------------------|----------------------------------|
-------------------|----------------------------------|


                                                    3                
  E  T. T. X T E  E  E  T S E.  S T    Q    X E  E  Q    S Q    X X  
------------------------------------|-------------------------------|
---------------0----------0---------|-------------------------------|
--------2--L---------2--L-----------|-------------------------------|
--------0------0-----0----0-----1-2-|--L------4-----2----4----------|
--------------------------------0---|---------0-----0----0----------|
------------------------------------|-------------------------------|


                                         5                              
  E  T. S T E  T S T E  T S E.  S X X    X E  T S. H        E  T S X X  
--------------------------------1-L-L-|--L-2----2----------------4-----|
--------------------------------2-L-L-|----3----3----------------4-L-L-|
--------------------------------0-L-L-|----1----1----------------4-L-L-|
--------2---4--------2----4-----1-L-L-|----2----2----------------3-L-L-|
--------0---0----0---0----------------|--------------------------------|
--------5---5----5---5----5-----------|--------------------------------|


  5                            5                                 
  X T H.           S E  X X    Q    T Q    T E  T T E.  T S X X  
----5-0------------L--------|-------5--------5----5-------------|
--L---4---------------------|-------5--------5----5-------------|
----5-----------------------|-----------------------------2-L-L-|
----4-----------------------|-----------------------------------|
----------------------------|-----------------------------------|
----------------------------|-----------------------------------|


             3      3                                            
  X E  T S T X E  T T E.  T S T E.  T T    X E  H.           E   
----5--L--------------------------------|-----------------------|
----5--L-------1--L-0-------------------|-----------------------|
--L------2------------------------------|----2------------------|
-------------1--------0-----2---4---L---|-----------------------|
----------------------------------------|-----------------------|
----------------------------------------|-----------------------|


  H        E  T X S. Q       X E  H.           E   
--------------------------|-----------------------|
---------------------1----|-----------------------|
------------------2-------|----2------------------|
--------------------------|-----------------------|
--------------------------|-----------------------|
--------------------------|-----------------------|


                  3                                      
  H        X E  T H        X    S. X. H.           E  X  
-------------0--L------------|--------------------------|
------------------1----------|--------------------------|
---------------------------2-|--L--L--------------------|
-----------------------------|--------------------------|
-----------------------------|--------------------------|
-----------------------------|--------------------------|


  H        E  T. X S Q    X    X. E  H.           S. X    W                 
----------------------------|--------------------------|-------------------|
----------------------------|--------------------------|-------------------|
---------------------0----L-|--L--2--------------------|-------------------|
-------------------2--------|--------------------------|-------------------|
----------------------------|--------------------------|-------------------|
----------------------------|--------------------------|-------------------|


                                               3                               
  X. E.  T E.  T T E.  T T E  S S X    T. X E  E  T T S. T. X T E.  T T E  E   
------------------------------------|-----------------------------------------|
-----------0---L-----------0--------|-------------0-1-------------------0-----|
-----2-------------2---L--------2-L-|--L-------2--2-------------2---L---------|
-----6-----0-------0---L---0----0-L-|--L-------0--0------0------0-------0-----|
-----5------------------------------|-----------------------------------------|
------------------------------------|-----------------------------------------|


                                                                      3        
  X E.  S E.  S E.  T T E  T S T    X E  T S T E  T S T E  T S T S. S X S X X  
---------------------------------|--------------------------------------1-L-L-|
---------------------------------|--------------------------------------2-L-L-|
---------------------------------|------------------------------------0-------|
----2-----4-----2---L---4----2-4-|---------2---4--L-----2----4---4----1-------|
----6-----6-----0-------0----0---|-------------0----0--------0-0--------------|
----5-----5----------------------|---------5---5----5---5---------------------|


  5                                5                          
  X E  T S. H        E  T S X X    X T H.           S E  X X  
--L-2----2----------------4-----|----5-0------------L--------|
----3----3----------------4-L-L-|------4---------------------|
----1----1----------------4-L-L-|----5-----------------------|
----2----2----------------3-L-L-|----4-----------------------|
--------------------------------|----------------------------|
--------------------------------|----------------------------|


                   3                                                            
  E  T. T T Q    T X E  T T E.  S. X    E  X. T T T E  T T E.  T S T E.  T T X  
--------0-5--------0-5----5--------5-|--L--L-----------------------------------|
--------------------------5--------5-|--L--L-------------0---------------------|
-------------------------------------|--------------5--L---------------------2-|
--------------------------------7----|----------7----------0-----2---4---L-----|
-------------------------------------|--------------6--L-----------------------|
-------------------------------------|-----------------------------------------|


                                              3      5  
  S. X. H.           E  X    H        E  T. X E  E.  S  
--------------------------|----------------------------|
--------------------------|----------------------1---L-|
--L--L--------------------|-------------------2--------|
--------------------------|----------------------------|
--------------------------|----------------------------|
--------------------------|----------------------------|


  5                                    5 -----          
  X S. H.           E  X X    H        X Q    Q    S X  
---------------------------|-------------0-------------|
--L------------------------|------------------1----L---|
----2----------------------|-------------------------2-|
---------------------------|---------------------------|
---------------------------|---------------------------|
---------------------------|---------------------------|


  S X. H.           E  T X    H        E  T. X S E.  S X  
---------------------------|-----------------------------|
---------------------------|-----------------------------|
--L-L----------------------|---------------------0-------|
---------------------------|-------------------2---------|
---------------------------|-----------------------------|
---------------------------|-----------------------------|


            5                                                               5  
  E  T. X S E  S S. S. S S. S. S T S X    X X S T S S T E  T Q    S. E  T S X  
----------5-2----0----------2----0-----|--------------------------------------|
----------5-3----1--2-------3------1-L-|--L---2-------------------------------|
---------------2---------2-------------|------------2---2----2----L-----1-2-L-|
-----------------------2-------2-------|--------2---2---0----6----------0-----|
---------------------------------------|---------------------4----L-----------|
---------------------------------------|--------------------------------------|


                                    5  
  E.  X X T T E  T S S E  T T E.  S X  
--------------------------------------|
------------0-----------------0-------|
--L---L-L------------1-2--L-----------|
--------------0--L---0--------0-------|
--------------------------------------|
--------------------------------------|


                     3        3        5    5                            5  
  X X E.  T T E  T S T E  T S X S E  S X    S E  T T E.  S E.  S. E  T S X  
-----------------------------------------|---------------------------------|
------------0-----------------0----------|---------------------------------|
------2--------------2-------------------|---------------------------------|
------0-------0--L-----0--L-----0----4---|-------2---4-----2------4------2-|
-------------------------------------7-L-|--L----0---0-----0------0--L---0-|
-------------------------------------5-L-|--L------------------------------|


     5                 3               5                                     3  
  E  S S E  T E  E.  T T S. E  X.    X X S. S S T S. S S T S. S S T T T S. T S  
----------------------------------|--------------------------------------------|
----------------------------------|------2----0---2----2---0----0---2-0----2---|
----------------------------------|----3-4---------------------------------4---|
--L--L---4--L----2---L---4--------|----2------2---2----2---2----2---2------2---|
--L--L---0--L----0-----0----------|--------------------------------------------|
----------------------------------|--------------------------------------------|


  3                                            
  T E  T S T S. S S T S. T T S X T E  T T T X  
----------------------------------------------|
-------------0----0----------------0----------|
----2----2-2----------2----2-------2----2---2-|
----0----0---0----0---0------0-----0--0-------|
----------------------------------------------|
----------------------------------------------|


  X. X E  T T Q    S S Q.     T X    X. X E  T S E.  T E.  T Q    T T X  
------------5--------5------------|-------5----5-----5-------5----L-----|
------------5--------5------------|-------5----5-----5-------5----L-----|
----------------------------------|-------------------------------------|
----------------------------------|-------------------------------------|
----------------------------------|-------------------------------------|
----------------------------------|-------------------------------------|


  W                   H        E  T. X S Q    X    X. X S. H.           E  X  
-------------------|----------------------------|----------------------------|
-------------------|---------------------1------|----------------------------|
-------------------|-------------------2--------|-------2--------------------|
-------------------|----------------------------|----------------------------|
-------------------|----------------------------|----------------------------|
-------------------|----------------------------|----------------------------|


  Q.     S. X. X E.  Q    S X    S X. X H.           E  T X  
-----------------0------------|-----------------------------|
---------------------1----L---|-----------------------------|
----------------------------2-|--L-L------------------------|
------------------------------|-----------------------------|
------------------------------|-----------------------------|
------------------------------|-----------------------------|


                   3                                                          
  H        E  X. X E  Q    X    X X S H.           E  T.    W                 
-----------------------------|---------------------------|-------------------|
-----------------------------|---------------------------|-------------------|
----------------------0----L-|--L---2--------------------|-------------------|
-------------------2---------|---------------------------|-------------------|
-----------------------------|---------------------------|-------------------|
-----------------------------|---------------------------|-------------------|


                                             3                             
  X X E.  T E  T E  E  T S Q    X    E  T. X E  E  T S. E  T S E.  T T. X  
----------------------------------|---------------------------------------|
------------0--L---------0--------|-------------0--L---------0------------|
------2---L---------2--L----------|----------2----------2--L--------------|
------0-----0-------0----0--------|----------0--0-------0----0-----1-2--L-|
----------------------------------|--------------------------------0------|
----------------------------------|---------------------------------------|


                                5                                   3     
  E.  T X T E  T S. E  T S Q    T    E  T X S T S. S T S T E  S E.  E  X  
----------------------------------|---------------------------------1----|
----------------------------------|---------------------------------2--3-|
----------------------------------|---------------------------------0--1-|
--L---L-----4--L----2--L-4--------|---------2---4--------2----4-----1----|
------------0-------0----0--------|-------------0----0---0----0----------|
----------------------------------|---------5---5----5---5----5----------|


  X. X E  T S H        E.  S X    T. X H.           S E  X  
-------2----2--------------4-5-|--L--L-0------------L------|
--L--L----3----------------4---|-------4-------------------|
--L--L----1----------------4-5-|--L--L---------------------|
-------2--2----------------3-4-|--L--L---------------------|
-------------------------------|---------------------------|
-------------------------------|---------------------------|


                                                               3            
  E  T. X T Q    T E  S T E.  S. X    E  X. X S T E  T T E.  T E  E.  T T.  
----------5--------5----5--------5-|--L--L---------------------------------|
----------5--------5----5--------5-|--L--L--------1--L-0-------------------|
------------------------------2----|----------2----------------------------|
-----------------------------------|--------------1--L---0-----2--4---L----|
-----------------------------------|---------------------------------------|
-----------------------------------|---------------------------------------|


      3                                                              5     
  X X T E.  T E.  S E.  S E.  T. X    X T E  T S E.  S E  S S E  T T X T.  
-----------------------------------|--------------------------------------|
-----------------------------------|--------------------------------------|
-----------------------------------|--------------------------------------|
------1-2-----4-----2-----4--------|----2--------4-----2----4------1---2--|
------0-------0-----0-----0--------|------0--L---0-----0----0--------0----|
-----------------------------------|--------------------------------------|


     5                                                  3          
  E  S S E.  S. E.  S E.  T.    X X E.  S E.  S E  T S. T E  S X.  
-----------------------------|------------------------------------|
-----------------------------|------------------------------------|
-----------------------------|------0-----------------------------|
--L--L---4------2-----4------|------------4-----2--L----4---------|
-------0-0------0-----0------|------0-----0-----0--L------0-------|
-----------------------------|------------------------------------|


    3 3                                             5                      3  
  X X X E  T S E.  S E.  T T T E  T S X    T E  T S X E  T S. E.  S E  T S T  
----------------------------------------|------------------------------------|
----------------------------------------|------------------------------------|
--------------------------------------0-|--L---------------------------------|
----1---2--L---4-----2---L---4----------|-----------4---------2-----4--L-----|
------0--------0-----0---------0--L-----|----0--L-----0--L----0-----6------0-|
----------------------------------------|---------------------------5--------|


  3                    3                      
  X E  H.           S. T    W                 
-------------------------|-------------------|
-------------------------|-------------------|
----2--------------------|-------------------|
-------------------------|-------------------|
--L----------------------|-------------------|
-------------------------|-------------------|


  3                                     3                        3   
  X T E.  T E  T S. E.  T T E.  T. X    X E.  S E.  S E.  S E  T E   
-------------------------------------|------------------------------|
----------0---------------0----------|----------0-----------0--L----|
----1-2-------------2----------------|----2-----------2-------------|
----0-6-----0--L----0-------0--------|----0-----0-----0-----0--L----|
-------------------------------------|------------------------------|
-------------------------------------|------------------------------|


  |3|                    3      3     3                            3 3  
  X T E.  T E.  S. E.  T X E  T E     X E.  S E  T S. E.  S E  T S X X  
-----------------------------------|-----------------------------------|
-----------------------------------|-----------------------------------|
-----------------------------------|---------------------------------1-|
----1-2-----4------2-----4---------|----2-----4--L----2-----4--L---0---|
------0-----0------0-------0--L----|----0-----0--L----0-----0----------|
-----------------------------------|-----------------------------------|


  3                             3    3                 3            5 5    
  T E.  T T E  T S. E.  S E.  T X    T E  T S T E  T S T E  T S E.  T S X  
----------------------------------|---------------------------------------|
----------0---------------0-------|-----------0---------------0-----------|
--L-2---------------2-----------2-|--L-----------------2------------------|
------------0--L----0-----0-------|----0--L-----0--L-----0----0-----1-2-2-|
----------------------------------|---------------------------------0---0-|
----------------------------------|---------------------------------------|


            5          3                     
  E  T. X S X E  T T S X E  T S T E.  T X X  
--------------------------------------------|
--------------------------------------------|
--------------------------------------------|
--L--L------4-4--L-----2-2--L-----4-----2-L-|
--L--L----0---0------0-0------0---9---0-----|
----------------------------------5---------|


  X E  T T S E  T T S E  T S Q    X. X    Q    X E  Q.     E  S. X. X  
---------------------------------------|---------2---------2----------|
---------------------------------------|---------3---------3----------|
---------------------------------------|---------1---------1----------|
----2--L-----4--L-----2--L-4-----------|---------2---------2----------|
-----------0--------0------------------|------------------------------|
---------------------------------------|------------------------------|


  Q    X E  E  Q.     S T. X    E.  X Q    S E  E  E  T S X. X  
---------0-----0------L------|---------------------------------|
-----------------------------|---------------3-----4--L--------|
---------5-----5------L------|--------6----L-------------------|
---------4-----4-------------|---------------------------------|
---------5-----5------L------|---------------------------------|
-----------------------------|---------------------------------|


  X E  T S. E  T S E  S S E.  S X. X    H        E.  X Q    T. X  
----0--L-1--2--L-3-4----5------------|---------------------------|
-------------------------------------|---------------------------|
------------------------------2-L--L-|--L--------L---------------|
-------------------------------------|---------------------------|
-------------------------------------|---------------------------|
-------------------------------------|---------------------------|


  X  T  E  H        Q    S X   
----12-----------------------||
----12-----------------------||
----11-----------------------||
-------11--------------------||
-----------------------------||
-----------------------------||










Piano

     W                   W                   W                 
E||-------------------|-------------------|-------------------|
B||-------------------|-------------------|-------------------|
G||-------------------|-------------------|-------------------|
D||-------------------|-------------------|-------------------|
A||-------------------|-------------------|-------------------|
E||-------------------|-------------------|-------------------|


  W                   W                   W                   W                 
-------------------|-------------------|-------------------|-------------------|
-------------------|-------------------|-------------------|-------------------|
-------------------|-------------------|-------------------|-------------------|
-------------------|-------------------|-------------------|-------------------|
-------------------|-------------------|-------------------|-------------------|
-------------------|-------------------|-------------------|-------------------|


  W                   W                 
-------------------|-------------------|
-------------------|-------------------|
-------------------|-------------------|
-------------------|-------------------|
-------------------|-------------------|
-------------------|-------------------|


            3                                3  
   E  T  T  X  S. S S.  T  T  E  S.  E.   S  T  
--------14-17----------------16----------------|
-----------21-------------22-19----------------|
-----------20-21----------20-21----------------|
-----------22----------------22----------------|
-----------------------------------------------|
--10--L----------22----22-----------22---17-10-|


     5             5                             
  X  X  S.E   E.   X  T  E.  T  S  T  T E   S X  
----17-16---------17-16--------------17---------|
----16-17---------16-19-17---L------------------|
----17------------17--------------17------------|
-------------------------------------------14-L-|
-------------17----------------17---------------|
--L---------------------------------------------|


           3     3             3                       
  T  E  T  T  T  X  T E  T  S. X  T  S. S. E  T  S X.  
----------17-16---------------17-16-------17--L-------|
----------16-19-17-16---------16----17----15--L-------|
---------------------------14----------14-------14-L--|
--L---------------------------------------------------|
----12--L---------------------------------------------|
------------------------------------------------------|


               3                        5              
  X  T  E   S  X  T  T E   S  E.   S T  X  T S.  T  S  
----17--------17----16-------17--------17-16----------|
----21-17------------------------------15-------------|
--L-20-----------19-------14-18---14------------------|
-----------19-----------------------------------------|
------------------------------------------------14-14-|
------------------------------------------------------|


     5          3             5                5                
  T  X  E  T T  T  T E  T  S  X  E  T  T  T T  T  T S.  T T. X  
----12-----0---12-11------------12----12---------------12------|
----11-12------14------------11-16----12-14------------16------|
----13---------14---------------16--L-14-12------------17------|
--------------------------14----18------------14-------19-0--L-|
--L----------9-----------------------------------------21------|
-------12----------------------------------------14------------|


         5                                
  E.  X  S  E.   S. E   S T  T E  T  S X  
-----------10------10--10----------------|
-----------13------13--10----------------|
-----------14------14--11----------------|
--L---L----16---12-16--------------------|
--------17------------------12------12-L-|
-----------------------------------------|


                             3                        
  X. X  E  T  S  T  E  T  S  T  T  E   S. E  T  S  X  
--------------------------------0---------0----------|
-------14--L----15-15--L-------14-10-----15-------14-|
-------14--L----16-14--L----14-18-13-----16--L----13-|
-------14--L----14-14--L----14-18------7-24--L----14-|
--L----------12----------12-----------12-24--L-12----|
-------------17----------17--------------24--L-17----|


       3          3          5  5     3             |--|  3 --  3      5 5 --5 5
  X X  S  T  T T  T  T  T T  X  X T S X T T E  T T  T  X  X T T T T  T X X X T X
--------------------------------------7-7-6------6--------5-0-----0-------------
--L---14------------------------------9---7-8--L-8-10----10-5-3-3-1--0-------0--
--L---14-14-13------------------------7-7----------13-10-10-------5--7-0-0---2--
------14---------14-14-----------------------------------------------9-7---3-3-0
-----------------------12---12------------7-------------------------12-------7--
-------------------------------12-9-------0-----------12--2---------------------


  X T H.           E.  X X    W                   W                 
---------------------------|-------------------|-------------------|
---------------------------|-------------------|-------------------|
---------------------------|-------------------|-------------------|
---------------------------|-------------------|-------------------|
---------------------------|-------------------|-------------------|
----1----------------------|-------------------|-------------------|


  W                   W                   W                   W                 
-------------------|-------------------|-------------------|-------------------|
-------------------|-------------------|-------------------|-------------------|
-------------------|-------------------|-------------------|-------------------|
-------------------|-------------------|-------------------|-------------------|
-------------------|-------------------|-------------------|-------------------|
-------------------|-------------------|-------------------|-------------------|


                              3           5                          
  W                   X E  T  S  S.E   S  T  T  S E   T  T E   T  T. 
-------------------|---------17----------17-16----------------------|
-------------------|---------16-17-------16-19-17-------------------|
-------------------|---------17----------17-------------------------|
-------------------|----0--L----------------------------------------|
-------------------|------------------17-------------17-------12----|
-------------------|------------------------------------14-------10-|


                              3                               
  X  T  T  S T  T  T T  S E   T  T  T E  T  T  T  S.S  T X S  
----17-16------17------------17---------------17-------------|
----16----17---19-20---------21------------------------------|
----17---------21------------23-21-20------17---------17-----|
---------------22------------25------------------------------|
-----------------------17----27------------------17----------|
--L----------------------------------------------------------|


                         3                             
  X  E.   T  T  T E   S. X  T T  S. S  T  E  T  S X X  
---------17-16----------17-16---------17--------------|
---------16-19-16-------16------17-------15--L--------|
------------21-------14------------14----------14-L-L-|
------------------------------------------------------|
------------------------------------------------------|
----17------------------------------------------------|


     5            |--|                                  
  X  X  T  E   S  X  T  T E   S  E.   S T  E  T  S X X  
----17-16--------17----16-------17--------17-----------|
-------16-17--------15--------------------21-----0-L-L-|
--------------14-------------14-18---14---19-----------|
-------------------------------------------------------|
-------------------------------------------------------|
------------------------------------------------19-----|


                3                         5               
  X  T  E  T T  T  T E   S. E  T  T  T T  T  T S.  T S X  
-----------0---12-11-------12----12---------------12-----|
----17-12------14----------16----12-14------------16-----|
----15---------14----------15----14-12------------17-----|
----18------------------14-21--L---------14-------19-0-L-|
-------------9-------------23---------------------21-----|
-------12-----------------------------------14-----------|


       5                                   
  E.   S  T  E.   S  E  T  S T  S S.  S X  
--------------------10----10--------------|
---------15-13------13--L-10--------------|
------------14------14----11--------------|
--L---------16---12-16--------------------|
------17-----------------------12----12-L-|
------------------------------------------|


                5                                     3  
  X X  E  T  S  T  T  E   S  T  T  E   T  S  E  T  S  T  
--------------------------------0------------0----------|
------14--L----15----15--------14-10--------15-------14-|
------14--L----16-14--------14-18-13--------16--L-------|
------14--L----14-14--------14-18-----------24--L----14-|
--L---------12-----------12-----------12-12-24--L-12----|
------------17-----------17-----------------24--L-17----|


  3  3  3               5 5                 3    3 ---       5 5     |--5--|    
  X  X  T  T  S T T T T X X T S.  T  T E  T X  T X  X T T T  X X T T T X X X T T
-----0----------------------------7---------6--5----5-0---0---------------------
--L--9-14----10-------------------9-11-8--L-8--9---10---3-1--0-----0------------
----13-14-13-13-9-9---------------7-----------10---10---7-5--7-0-0-2-----0------
--------------------7---7--------21----------------14--------9-7---3-2-0-0------
--------------------------7-4----21--------------7----------12-----8-------4-0-1
---------------------------------22--0--------------2--------------------8-7----


  T T H.           E.     W                   W                 
-----------------------|-------------------|-------------------|
-----------------------|-------------------|-------------------|
-----------------------|-------------------|-------------------|
-----------------------|-------------------|-------------------|
-----------------------|-------------------|-------------------|
--3-3------------------|-------------------|-------------------|


  W                   W                   W                   W                 
-------------------|-------------------|-------------------|-------------------|
-------------------|-------------------|-------------------|-------------------|
-------------------|-------------------|-------------------|-------------------|
-------------------|-------------------|-------------------|-------------------|
-------------------|-------------------|-------------------|-------------------|
-------------------|-------------------|-------------------|-------------------|


                           3  3       5                    3                   
  H.           E  T S T    X  X  S.S  X  T T  E  E   E  T  X  T T S. S S. X X  
------------------------|----12-10------10---10------8--L-10------------------|
------------------------|----13------13------10-----10-------10---------------|
--------------------2---|----14-11---11------11-----11----11------7-----------|
------------------------|--0-----------------12------------------------7------|
------------------------|-----------------------------------------------------|
------------------------|-----------------------------------------------------|


     5 ---                            5                 
  E  X  X  T  S  T  E  T  S  T  T E   X  T  E.  T  T.X  
-------12--8-10----10----------------------------------|
----------10----------------13-10-------10-10----------|
-------------11-11----------11-------11----------------|
-------------------------12----------------12----------|
--------------------------------------------------12-L-|
-------------------------------------------------------|


        3                          5 ---           3          
  X  T  X  T  S T  T  T S. S T S.  X  T  E   S  T  Q     S X  
----17-16---------17-16-----------17-16--------17------------|
----16-------17---17-19-----------16----17--------15---------|
-------------------------------2-----------------------------|
-------------------------------------------------------------|
------------------------0----0-------------------------------|
----------17--------------------------------17----------17-L-|


                            3               3       
  X. X  S  S T  S. E  T  S. X  T  S  S.E.   T  S X  
-------17---------17-------17-14-----------11------|
-------16-17------21-------16----17-15-----12-15-L-|
------------------21--L--------------------15------|
------------------25-----------------------18------|
---------------------------------------------------|
--L------------17-------17-------------------------|


                                  3                    
  X. X  E  T  S  T  T E   S  E.   T  T  E  T  T  S  X  
----------------12-11-------12---------12--L-------12-|
--L--L----------14----------12---------14-------------|
----------------14----------13---------14--L-15----11-|
-------------14----------14------14-------------------|
------------------------------------------------14----|
-------12--L------------------------14----------------|


                          5                   
  X X  E  T  S  T  E  T S X E  S  T Q    T X  
--L-L----------10--8------8-5----10--------9-|
------13--L-------10--L---7----------------9-|
--L-L-14--L-------11--L-7------------------9-|
-------0--L-12-------------------------------|
---------------------------------------------|
---------------------------------------------|


                              5              
  T  E  S.  E  T S.  E  T  S. T  T S.  S. X  
--L---------9--L----10--L-------------------|
--L-10-----10--L----14-------15-14-------14-|
--L---------9--L----14--L----14-------------|
--------7--------7--14--L----14-------------|
-----0--------------------12----------12----|
--------------------------------------------|


                                    3     5 5 5                              
  E  X.  S T  S S.  T  S. S T  S. T T T T T T T T T T X    W                 
-------------------------------0------------------------|-------------------|
--L--L-------11----12-11-11---------0-------------------|-------------------|
-------------------11---------10------7-0---0-----------|-------------------|
--------14---------12------------10---7---7-0---0-------|-------------------|
-------------12-------------------------8-7-----0---0---|-------------------|
----------------------12--------------------8-7---3-1---|-------------------|


  W                   W                   W                   W                 
-------------------|-------------------|-------------------|-------------------|
-------------------|-------------------|-------------------|-------------------|
-------------------|-------------------|-------------------|-------------------|
-------------------|-------------------|-------------------|-------------------|
-------------------|-------------------|-------------------|-------------------|
-------------------|-------------------|-------------------|-------------------|


  W                   W                 
-------------------|-------------------|
-------------------|-------------------|
-------------------|-------------------|
-------------------|-------------------|
-------------------|-------------------|
-------------------|-------------------|


          3         5       3               3              5 ---                
  E  T. X X T  T  T T T  T  S  T  T  T T T  X  T  T  T  T  T  X  T  T S.  T  S X
--------------------0----7-13-20-22-24-----22-20-------19----------------11-17-L
---------------0--3-6-8-10-13-24--------------24-22-20-22-20----12-------13-19--
------------0--0--6-8-7--9-21-26-24-26--------------22-21-19-17-14-14-------19--
----------3-6--8-10-9------24-29------------------------------------------------
--------------12-12--------24-29------------------------------------------------
---------------------------27---------------------------------------------------


      3     3                                                           
  X.  S  S  S  T  S  S  T  S  T  S  T  S  S  T  S  S  T  T T  T  T X X  
--L-----17----17----17----17----17----17----17----17----17------17-----|
-----------------------------------------------------------------------|
-----17----17----17----17----17----17----17----17----17------17--------|
-----------------------------------------------------------------------|
-----------------------------------------------------------------------|
-----------------------------------------------------------------------|


  5                    3                                  
  X  T  S  T  S  S  S  S  S  S  S  T  S  S  E.  T  T T X  
-------17----17----17----17----17-17-17----17---L--------|
---------------------------------------------------------|
----17----17----17----17----17----17----17--------17-----|
---------------------------------------------------------|
---------------------------------------------------------|
---------------------------------------------------------|


                   3      3                 3        3       3                
  X.  T T  T T  T  E   S  X  S  S  T  T  T  T  S  T  X  T T  E   S  S T  X X  
-----29---29---24-29--29-24-29-29-24-29-24----29----29------29--29-29---24-L-|
-----28---29------22--29----22-29----28----22-29-22-29-22---29--29-29---22-L-|
-----26---26----------26-------26----26-------26------------26--26-26--------|
-----------------------------------------------------------------------------|
-----------------------------------------------------------------------------|
-----------------------------------------------------------------------------|


  5           5          5       5          3                   3  
  X  T  T  S  T  S T  S  X  T T  X  T  T S  X  E   T  S E  T  S T  
----------29----29---29-29-24---29-24-26---20-29------------------|
--L-28-22-29-22-29---29-22---------22---------26-----22------22---|
----------26----26---26---------------------------24--------------|
------------------------------------------------------------------|
------------------------------------------------------------------|
------------------------------------------------------------------|


  3                3                   3      3  
  X  S  S T  S. S  E   S. S T  S  S.T  E   S. S  
------------24--------24---------24----------24-|
----20-21---------21----------21----------21----|
---------------24--------24-----------24--------|
------------------------------------------------|
------------------------------------------------|
------------------------------------------------|


  3                3                  5                
  T  T  T  S. S T  X  T S.  S T  S.S  E   T E  T  T.X  
--L----------22---22----------------------------------|
------------------25-24---------24---22--21-----------|
----22-23-24---------23------------------20-----------|
------------------24-------22-------------------------|
-------------------------------------24----------19-L-|
------------------------------------------------------|


                          5                   
  X  T  E  T  S  E  T  S. T  T S.  S. E.   S  
----17-16-------17--L----17------------------|
----16-17--L----19--L----19-21-------19------|
----18-------14-19-------21----------19------|
----------------------19-23----------19------|
--L-------------------------------19------19-|
-------17--L---------------------------------|


                5                3  3 ---  5     5 -- 3     3  
   E.   S  S.S  T  E  T  T  T  T T  T  X T X T T X T  T T S X  
---------------11-12--L-11-------------------0----------------|
--17------19---11-12--L----11-10-8----10---8-0-----0----------|
--18------19---13-----------9-13-9-10----9-7-5-7-0----0-------|
--19------19-----------------------------------7---3--0-------|
-------19----------------------9---------------------12-------|
---------------12------------------------------------12-8-----|


  W                   W                   W                   W                 
-------------------|-------------------|-------------------|-------------------|
-------------------|-------------------|-------------------|-------------------|
-------------------|-------------------|-------------------|-------------------|
-------------------|-------------------|-------------------|-------------------|
-------------------|-------------------|-------------------|-------------------|
-------------------|-------------------|-------------------|-------------------|


  W                   W                   W                 
-------------------|-------------------|-------------------|
-------------------|-------------------|-------------------|
-------------------|-------------------|-------------------|
-------------------|-------------------|-------------------|
-------------------|-------------------|-------------------|
-------------------|-------------------|-------------------|


                        3                                       3  
  H.           E.  T. X X    E  T. X  S  S.S.  S  E  Q    S  S  X  
--------------------------|----------17----------17------------17-|
--------------------------|----------16-17-------19------------19-|
--------------------------|----------17----------21------------20-|
------------------------0-|--L--L--L-------------22------------22-|
--------------------------|-------------------17------------17----|
--------------------------|---------------------------------------|


  |--|                 3     5                      
  T  S  S E   T  T S.  T  T  Q     S T  T  T E   S  
--L-------------------17---------------------------|
--L-21----------------19-21---------------22-------|
--L----21-------------20----21---------------------|
--L-------------------22---------------22----------|
------------------------------------------------19-|
-------------22-14----------------22---------------|


                            3                 
  X  E.   T  S.E   S  E  T  E   E  T T  S  X  
---------17----------17----17-------------17-|
---------21-19-------16----17----------------|
---------20-21-----------------14--L---------|
------------------19-------------------14----|
--L------------------------------------------|
----17---------------------------------------|


      3                 3                  3     
  X.  S  S. S. E  T  S. X  E  T  S. E   S. X  X  
--L-----------17--L----17-----------------------|
-----16-17-----------------------------------15-|
--------20----19--L-------19--L-18-----------13-|
-----------19-------19-------------19-----20----|
------------------------------------------------|
---------------------------------------19----12-|


                       3                    5  
  X.  E  T  S  T  E  T E   E  T  S  E  S  T S  
--------------12-11-------10----12-------12---|
--L--12--L----14-10-------12----14-------13---|
--L--15----------------9--13----14-------14---|
-----------14----------------------14----16-0-|
----------------------------------------------|
--L-------------------------------------------|


  E  T.  S. E  T  S  T  E  T  S. S E  T X X  
-----------10--L-------------10-------------|
-----------10--L----13-10----10-------------|
-----------11--L-------11----11-------9-----|
--L--L--12-------12-------------12----------|
--------------------------------------------|
----------------------------------------5-L-|


  E  T. S S E  S T  E  T S  S.S. S X X  
-----------------0-12----0-------0-L-L-|
--------5----------10------------------|
----------2----2-----------------------|
---------------------------------------|
---------------------------12----------|
--L--L---------------------------------|


  5                                          5  
  X  S  S T S.  S S  S.T  S  S T S. S S. S X X  
----12------0-----0------12--------------------|
-----------------------------------------------|
---------------------------------9----9--------|
-----------------------------------------------|
------------------------------------7----7-----|
-------12------12---12------12-----------------|


                                       5  
  X X E  T  S E.  S  T  E  S. S. S.  S X  
-----------17-----0----17-----0----------|
-----------17----------17----------------|
-----------20-------20-------------------|
-----------19-------19--------------14-L-|
------7--L-------------------------------|
-----------------------------------------|


             5                                             
  X X  S  S. T  S  E  T  S T  T  E   T  T T  E  T  S  X X  
------17---------------------17-------------17----17------|
------16-17------------------16-17----------17----17------|
------14----------14--L------14---------------------------|
--L-L-------14----------14----------14--------------------|
---------------11------------------------------------19-L-|
---------------14----------------------14-----------------|


  E  T.  T  T  T E.   S  S.E   T  T E  T  T  X X  
--------17--------------17-----------------------|
--------21--------------17-----------------------|
--------20-21-21--------20-----------------------|
--------21--------------19---------------14------|
--L--L--24-----------19-------19-----------------|
---------------------------------14---------14-L-|


  5         5            5            5        3       5 ---       5     5 ---  
  X E.   S  X  T T  S T  T  T T  T T  X  S  T  X  T T  S  X  T  T  X  T  X  T  T
-----------29-28---29-----------29---29------------------28----22-20-24----20-17
-----------28------29-----------28---29-22------------24----24-------24-22-20-18
-----------26------26-----------26--------------------26----------------------21
--------14----------------------------------------------------------------------
--------------------------------------------------------------------------------
--------14--------------24-14--------------24-14-16-----------------------------


                        5                          
  X.  E   T  T T  S E   S  T  S.E  T  E  T  S X X  
---------17-16------------17-16-------------------|
--L------20---------------16-17-------------------|
--L------20---------------14----------------------|
---------19------------14------------14--L--------|
-------------------------------------------14-----|
-----12----------14-------------------------------|


               |--|           5                           
  X X  T  S.S  S  X  E  T  S  X  T T  S T  S. T  E.  T X  
------17---------17-------------17---17------17----------|
------16-17---------17--L----16------17------16-17---L---|
------14-------------------------------------------------|
-----------------19-------------19---19------19----------|
--------------------------19--------------19-------------|
--------------14-----------------------------------------|


  T  E  H.           S. X    W                 X  
----17--------------------|----------------------|
----17--------------------|----------------------|
--------------------------|----------------------|
----19--------------------|--------------------0-|
--------------------------|-------------------17-|
--------------------------|----------------------|


  E  T X  S E.   S  T  S E.   E.   T.X  
---------17--------17------------------|
---------19--------19-17---------------|
---------21-----------17---------------|
--L--L-L-22-------------------0--------|
--L--L-L--------17-----------17---17-L-|
---------------------------------------|


                                           5     
  X  E  T  S. E  T  S. T  T S.  S  T  S E  S  X  
----17----17----------17-16----17---------------|
----16----20----------16-------17---------------|
----17----21-17--L----17-------17------------14-|
----------22------------------------------------|
--L----------------17----------------------0-12-|
----------------------------------17-15---------|


                        5                  5    3  
  X. X  E.  T  E.  T T  X  E  T  T  T E.   X  S X  
--------------------------------------------------|
-------14-----15---L---16-------17-16-------------|
--L--L--------16---L---17-------18--------18-14-L-|
--------------------------------------------------|
--L--L--------14----------15----16---------0------|
------------------------------------------17------|


                                          3  
  E  T. X S  T  E.  T  E  T  T  S E  T  S S  
----------------------12-------12-----------|
------------15-12-----13----14--------------|
--L--L--L-----------------------------------|
-------------------------------11-----------|
---------------14-----15--------------------|
---------------------------------------12---|


  3            3                          
  T  E   T  S  Q     S. T  T E  S  E.  S  
--------12-10-10--------8-10-------8-----|
-----------13----------10---------10-----|
-----------14-11-------11-------7-11---7-|
-----------16-------12-------------------|
-----------------------------------------|
----10-----------------------------------|


   5      3   3        5                        
   X E  T E   T  T S.  X  S. E   Q    T T T. X  
--12-8--L----10----------10--------------------|
--10-7--L----14-13----13-10-----10-------------|
----------7--14----------11-----11-------------|
-------------16-------------12------------7--L-|
----------------------------------------0------|
-----------------------------------------------|


                         3                                                     
  X S E  S E.  S E.  T T Q    S X X    E  T. S. E  T S. E  T T T T  E  S. X X  
----5-0----5-----5-----5--------5-L-|--L--L-----5--L----5--L--------0---------|
----4-4----5-----4-------3----------|-----------3--L----4--L-------10---------|
---------2-----2-----2--------2-6-L-|--L--L--2-------2-------2-----11---------|
--L---------------------------------|-----------------------------------------|
------------------------------------|--------------------------4--------------|
------------------------------------|-----------------------------------------|


  E.  T.  E  Q.      E  E  X X    E.  T.  E  E   H        X X  
---------12---------12---------|---------12-----12--------L-L-|
---------12---------12---------|---------13-----13--------L-L-|
---------13---------13---------|---------14-----14------------|
---------14---------14---------|---------16-----16--------L-L-|
-------------------------------|---------17-----17--------L-L-|
---------12---------12---------|---------10-----10--------L-L-|


  X E  T  Q    S T  E.  S E  S. X X    E  X  S. E  T  S. E  S  S.E   S.X X  
------------------------------------|--------------------------------------|
------------------------------------|--------------------------------------|
--------------------------8-----9-L-|--L--L-10-11----12-13----14-----------|
---------11----L---12---------------|--------------------------------------|
------------------------------------|-------------------------------12-L-L-|
------------------------------------|--------------------------------------|


  H.           E.  T. X X    X  E.  T H        Q    X   
--------------------------|----29---------------------||
--------------------------|----29---------------------||
--------------------------|----26---------------------||
--------------------------|----19---------------------||
--L------------L---L------|---------------------------||
--------------------------|----17---L-----------------||










Sax
                                                                    3       3  
     H        E  T S. Q       E  T H.           S.    H        E  T E  Q    X  
E||------------------------|-----------------------|--------------------------|
B||------------------------|-----------------------|-------------------1----L-|
G||-------------------0----|--2--L-----------------|----------------2---------|
D||----------------2-------|-----------------------|--------------------------|
A||------------------------|-----------------------|--------------------------|
E||----------------0--3----|-----------------------|--------------------------|


  3                    3           3                 3  
  T E  H.           S. X    Q.     T S. T E  Q    S. X  
-------------------------|----------------0------------|
--L----------------------|-------------------1----L----|
----2--------------------|-----------2-----------------|
-------------------------|-----------------------------|
-------------------------|-----------------------------|
-------------------------|-----------------------------|


  3                    3                3         3    3                     3  
  T E  H.           S. X    H        E  T S. Q    X    T E  H.           S.  X  
-------------------------|--------------------------|-----------------------17-|
-------------------------|--------------------------|--------------------------|
----2--------------------|-------------------0------|----0---------------------|
-------------------------|----------------2---------|----7---------------------|
-------------------------|--------------------------|--------------------------|
-------------------------|--------------------------|--------------------------|


  3                                                             
  T S  T.X T  S  T S  T S  S T  T  T T  T T  T T  T  S.S.  T.X  
--L---17-----17-17---17---17---17-17---17---17---17-17----17-L-|
---------------------------------------------------------------|
---------------------------------------------------------------|
---------------------------------------------------------------|
---------------------------------------------------------------|
---------------------------------------------------------------|


     3           5  5 --- 5 --                         
  S. X  T  T  T  X  T  T  X T  T  T  T H        S. X.  
--L--L-15-13-15----13-10----------0--0----------------|
-------------17-15-13-12-10-8----10-------------------|
------------------------------10-12-------------------|
------------------------------------12----------------|
------------------------------------------------------|
------------------------------------------------------|


          5 ---                         3                
  E  T X  T  X  T T  E  T  S T  T  S.T  T  S  E  T T  S  
---------16-17-16---14--L-12---16-17---16-17-14--L---17-|
----------------------------------21-----------------21-|
--------------------------------------------------------|
--------------------------------------------------------|
--------------------------------------------------------|
--------------------------------------------------------|


             5 --- |--3--|                   3         
  E  T X  T  T  T  T  T  T  T H        S  T  X  T T X  
--L--L---15-17----15---------------------16-17-16-----|
------------18-17-15-13-12-10---------------20--------|
------------------------------------------------------|
------------------------------------------------------|
------------------------------------------------------|
------------------------------------------------------|


              3           5                     5  
  E  X. X  S. Q     S  T  X  T E   S T  E  T  S X  
----------17----------16-17-16---------14----17-L-|
----------21-19----17-------------17--------------|
--------------------------------------------------|
--------------------------------------------------|
--------------------------------------------------|
--------------------------------------------------|


             5     3                    3                      
  E  X X  T  X  T  X  T  T H        E.  T    W                 
--L--L-L-15-13-17-15----------------------|-------------------|
---------------17----15-------------------|-------------------|
---------------------17-16----------------|-------------------|
------------------------------------------|-------------------|
------------------------------------------|-------------------|
------------------------------------------|-------------------|


  W                   W                   W                 
-------------------|-------------------|-------------------|
-------------------|-------------------|-------------------|
-------------------|-------------------|-------------------|
-------------------|-------------------|-------------------|
-------------------|-------------------|-------------------|
-------------------|-------------------|-------------------|


  3                       3    3                    3  
  W                S Q    T    X E  H.           S. T  
----------------------------|-------------------------|
---------------------1------|-------------------------|
-------------------2--------|----2--------------------|
----------------------------|-------------------------|
----------------------------|-------------------------|
----------------------------|-------------------------|


         3         3           3                    3  
  Q.     S S. E  T H           X E  H.           S. T  
--------------0-------------|-------------------------|
-------------------1--------|--L----------------------|
-----------2----------------|----2--------------------|
----------------------------|-------------------------|
----------------------------|-------------------------|
----------------------------|-------------------------|


  3 
Добавлено: 29.05.2012
Другие материалы по этой песне:

Страница создана 16.03.2012
http://primanota.ru/koko-taylor/hey-bartender-chords.htm
Привет, Гость.
Предлагаем пройти революционный курс по гитаре.
Подарок от PrimaNota.Ru, забирай!